PrimaNota.ru - самый крупный в мире бесплатный архив песенных текстов, аккордов, табулатур и нот


Mallory Knox - Death Rattle - таба, видео

Регистрация Запомнить меня
Войти через:  Facebook Google Twitter Vk Yandex Mail.ru

Mallory Knox - Death Rattle - таба, видео

Печатать
Просмотров: 159
INTRO/VERSE

Electric 2
CLEAN
E|---------------------------------------------|
B|---------------------------------------------|
G|---------------------------------------------|
D|---------------------------------------------|
A|---------------------------------------------|
D|-77777777-66666666-2222222222222222-00000000-|

----------------------------------|
----------------------------------|
----------------------------------|
----------------------------------|
----------------------------------|
-99999999-1111111111111111-119876-|
               11's ^
PRE-CHORUS

Electric 1
CLEAN (repeatedly)
E|-5-----5-----|
B|-----7-----7-|
G|-------------|
D|-------------|
A|-------------|
D|-------------|

Electric 2
CLEAN
E|----------|
B|----------|
G|----------|
D|-0-2-4-11-|
A|-0-2-4-11-|
D|-0-2-4-11-|

CHORUS

Electric 1
(only played 2nd time, play E1s part the 1st time)
E|---4h5r4---4h5r4-2-4-5-4-9b-|
B|-5-------5------------------|
G|----------------------------|
D|----------------------------|
A|----------------------------|
D|----------------------------|

Electric 2

E|------------|
B|------------|
G|------------|
D|-4-11-2-4-0-|
A|-4-11-2-4-0-|
D|-4-11-2-4-0-|

VERSE (part 1)

Electric 1

E|-----------------------------------------------------------------------|
B|-----------------------------------------------------------------------|
G|-----------------------------------------------------------------------|
D|--------------------------h6h6h6-777-----------------------------------|
A|-9999h11h11h11-121212-777-----------------h4h4h4-2444-----h4h4-4-2-0---|
D|-------------------------------------0000-------------0000-----------6-|

Electric 2

E|-------------|
B|-------------|
G|-------------|
D|-16-14-12-13-|
A|-16-14-12-13-|
D|-16-14-12-13-|

VERSE (part 2)

Electric 1

E|-----------------------------------------------|
B|-----------------------------------------------|
G|-----------------------------------------------|
D|-------------------------------7-9-------------|
A|-9-999-11-12-7-777-11-12-5-555-----4-444-2-0---|
D|---------------------------------------------6-|

Electric 2

E|----|
B|----|
G|-14-|
D|-x--|
A|-12-|
D|----|

PRE-CHORUS

Electric 1
 (delay/synth)
E|-------------|
B|-------------|
G|-11-13-14-10-|
D|-------------|
A|-------------|
D|-------------|

Electric 2

E|----------|
B|----------|
G|----------|
D|-0-2-4-11-|
A|-0-2-4-11-|
D|-0-2-4-11-|

CHORUS

BRIDGE (part 1)

Electric 1

E|------------------------------|
B|------------------------------|
G|-11-9------------11-9------10-|
D|------11-7-9-7--------11-7----|
A|---------------9--------------|
D|------------------------------|

BRIDGE (part 2)

Electric 1

E|------------------------------|
B|------------------------------|
G|-11-9------------11-9------10-|
D|------11-7-9-7--------11-7----|
A|---------------9--------------|
D|------------------------------|

Electric 2
(listen to the song for the pattern)
E|--------------------------------------------|
B|--------------------------------------------|
G|--------------------------------------------|
D|-9-0-4-7-11-9-7-6-4-6-7-9-11-9-7-0-4-6-7-11-|
A|-9-0-4-7-11-9-7-6-4-6-7-9-11-9-7-0-4-6-7-11-|
D|-9-0-4-7-11-9-7-6-4-6-7-9-11-9-7-0-4-6-7-11-|

CHORUS

BRIDGE (slight variation, easy to figure out)

OUTRO

Electric 1+2

E|------------------------------------------|
B|------------------------------------------|
G|------------------------------------------|
D|-4-6-7-6-4-6-0-11----1111-976----1111-974-|
A|-4-6-7-6-4-6-0-11-x3-1111-976-x2-1111-974-|
D|-4-6-7-6-4-6-0-11----1111-976----1111-974-|
Добавлено: 14.08.2013
Другие материалы по этой песне:

Страница создана 14.08.2013
http://primanota.ru/mallory-knox/death-rattle-chords.htm
Привет, Гость.
Предлагаем пройти революционный курс по гитаре.
Подарок от PrimaNota.Ru, забирай!