PrimaNota.ru - самый крупный в мире бесплатный архив песенных текстов, аккордов, табулатур и нот


Maliq N Dessentials - The One - бас-таба, видео

Регистрация Запомнить меня
Войти через:  Facebook Google Twitter Vk Yandex Mail.ru

Maliq N Dessentials - The One - бас-таба, видео

Печатать
Просмотров: 80
--------------------------------------THE-ONE--------------------------------
--------------------------------MALIQ-&-DESSENTIALS--------------------------

Tabbed By : kahaha
e-mail: kahaha95@yahoo.co.id

Tuning: Standard (GDAE)

Verse 1
G|--------------------------------------------------------------------------|
D|-------------------------------------5-5--------7----8--------------------|
A|---12\---------------56-6--5-5-5-8-9-----------7-86-6--6-5---5~-----------|
E|-------3-33--5-6---68-----------------3--5-6------------------------------|

G|--------------------------------------------------------------------------|
D|-------------------------------------5-5--------7----8--------------------|
A|-------------------56-6--6-5-5-5-8-9-----------7-86-6--6-5---5~-----------|
E|-----3-33--5-6---68----6--------------3--5-6------------------------------|


Chorus
G|--------------------------------------------------------------------------|
D|--------8-------3-5-5~----------------8-------3-5-------------------------|
A|---6-6---65---5----------3-3-5-5-6-6---65---5-------------5---------------|
E|-----------------------3-------------------------3-3-5-6------------------|

G|--------------------------------------------------------------------------|
D|--------8-------3-5-5~----------------8-------3-5~------------------------|
A|---6-6---65---5----------3-3-5-5-6-6---65---5-----------------------------|
E|-----------------------5----------------------------3~--------------------|

Interlude
G|--------------------------------------------------------------------------|
D|-----------------------------------5-5--------7----8----------------------|
A|------------------56-6--6-5--5-8-9-----------7-86-6--6-5------------------|
E|-----3-3--5-6---68----6-------------3--5-6--------------------------------|

Verse 2
G|------------------------------------------------------------7-------------|
D|-----------------------8------------5-5--------7----8------7--------------|
A|-------------------56-6--6-5--5-8-9-----------7-86-6--6-5-8---8h10--------|
E|-----3-33--5-6---68------------------3--5-6-------------------------------|

G|--------------------------------------------------------------------------|
D|-----------------------8------------5-5--------7----8---------------------|
A|-------------------56-6--6-5--5-8-9-----------7-86-6--6-5~--5~------------|
E|-----3-33--5-6---68------------------3--5-6-------------------------------|


Chorus
G|--------------------------------------------------------------------------|
D|--------8-------3-5-5~----------------8-------3-5-------------------------|
A|---6-6---65---5----------3-3-5-5-6-6---65---5-------------5---------------|
E|-----------------------5-------------------------3-3-5-6------------------|

G|--------------------------------------------------------------------------|
D|--------8-------3-5-5~----------------8-------3-5~------------------------|
A|---6-6---65---5----------3-3-5-5-6-6---65---5-----------------------------|
E|-----------------------5--------------------------3~-4~-------------------|

Bridge
G|--------------------------------------------------------------------------|
D|------------------------------------------7-------------------------------|
A|------------------56-6--5-5--------------7-86-6--5-5----------------------|
E|-----3-3--5-6---68------------3-3--5-6------------------------------------|

G|--------------------------------------------------------------------------|
D|------------------------------------------7----8----------35--------------|
A|------------------56-6--5-5--------------7-86-6--6-5-356-5----------------|
E|-----3-3--5-6---68------------3-3--5-6------------------------------------|

G|--------------------------------------------------------------------------|
D|--------8-------3-5-5~----------------8-------3-5-------------------------|
A|---6-6---65---5----------3-3-5-5-6-6---65---5-------------5---------------|
E|-----------------------5-------------------------3-3-5-6------------------|

G|--------------------------------------------------------------------------|
D|--------8-------3-5-5~----------------8-------3-5~------------------------|
A|---6-6---65---5----------3-3-5-5-6-6---65---5-----------------------------|
E|-----------------------5----------------------------6~--------------------|

Chorus
G|--------------------------------------------------------------------------|
D|--------8-------3-5-5~----------------8-------3-5-------------------------|
A|---6-6---65---5----------3-3-5-5-6-6---65---5-------------5---------------|
E|-----------------------5-------------------------3-3-5-6------------------|

G|--------------------------------------------------------------------------|
D|--------8-------3-5-5~----------------8-------3-5~------------------------|
A|---6-6---65---5----------3-3-5-5-6-6---65---5-----------------------------|
E|-----------------------5----------------------------3-3~--6~--------------|

G|--------------------------------------------------------------------------|
D|--------8-------3-5-5~----------------8-------3-5-----------3-5-----------|
A|---6-6---65---5----------3-3-5-5-6-6---65---5-------------5---------------|
E|-----------------------5-------------------------3-3-5-6------------------|

G|--------------------------------------------------------------------------|
D|--------8-------3-5-5~----------------8-------3-5~------------------------|
A|---6-6---65---5----------3-3-5-5-6-6---65---5-----------------------------|
E|-----------------------5---------------------------6~---------------------|

Outro
G|-------------------------|
D|-------------------------|(x4)
A|---6-6--345--------------|
E|--------------3-3--456---|

G|---------|
D|---------|
A|---8-5---|
E|---------|


http://www.maliqmusic.com/


| /  slide up
| \  slide down
| h  hammer-on
| p  pull-off
| ~  vibrato
| +  harmonic
| x  Mute note
=============================================================================
Добавлено: 08.10.2015
Другие материалы по этой песне:
  • Аккорды и текст

Страница создана 08.10.2015
http://primanota.ru/maliq-n-dessentials/one-chords.htm
Привет, Гость.
Предлагаем пройти революционный курс по гитаре.
Подарок от PrimaNota.Ru, забирай!