PrimaNota.ru - самый крупный в мире бесплатный архив песенных текстов, аккордов, табулатур и нот


Maliq N Dessentials - Menari - таба, видео

Регистрация Запомнить меня
Войти через:  Facebook Google Twitter Vk Yandex Mail.ru

Maliq N Dessentials - Menari - таба, видео

Печатать
Просмотров: 61
-------------------------------------------------------------------------------
                           MENARI - Maliq & D'Essentials
-------------------------------------------------------------------------------
Tabbed by:ndermawan
E-mail:ndermawan@yahoo.com

Tuning: Standard


Gets stuck in my head so easily :O Really nice chill song.
Solo parts provided at the bottom of the page.

Chords Used:
------------
    Cmaj7 Fmaj7 Em7 C   C7  Dm7 Fmaj/G

e|---8-----8----7---8---8---5---8-----------------------------|
B|---8-----10---8---8---8---6---10----------------------------|
G|---9-----9----7---9---9---5---10----------------------------|
D|---9-----10---9---10--8---7---X-----------------------------|
A|---10----8----7---10--10--5---10----------------------------|
E|---8--------------8---8-------------------------------------|


===============================================================================


Intro:                                                          (0.10-0.27)
------
Cmaj7 Cmaj7 Fmaj7 Fmaj7 X2

e|------------------------------------------------------------|
B|------8-10-12---10-8-----8-10-12---10-8---------10-8--------|
G|-9-(9)-----------------9------------------7-9----------7-9--|
D|------------------------------------------------------------|
A|------------------------------------------------------------|
E|------------------------------------------------------------|


Verse:                                                          (0.28-0.55)
------
    Cmaj7          Cmaj7              Fmaj7        Fmaj7
Menari nari kita trus menari meski hujan rintik turun
    Cmaj7          Cmaj7              Fmaj7        Fmaj7
Mengalun ngalun bersama alunan angin malam berpelukan
         Em7           Fmaj7
(Denganmu) berbagi senyuman
         Em7           Fmaj7
(Denganmu) oooh

    Cmaj7             Cmaj7                  Fmaj7       Fmaj7
Melayang layang kita trus melayang meski langit tanpa bintang   (0.55-1.22)
    Cmaj7          Cmaj7          Fmaj7        Fmaj7
Mendayu dayu suara daun yang berjatuhan bermesraan
         Em7          Fmaj7
(Denganmu) Mengisi lamunan
         Em7          Fmaj7
(Denganmu) oooh


Chorus:                                                         (1.23-1.47)
-------
C          Cmaj7     C7           Fmaj7
Oh lihat kita bertaburan bunga bunga
       C              Cmaj7         C7            
Kupu kupu saling menyapa mengajak kita
        Fmaj7   Em7 Dm7  Em7      Fmaj7   Em7   Fmaj/G  
Terbang bersama ke  sana,     menari nari asmara


Intro x1 (instrumental break)                                   (1.48-1.56)
--------
Cmaj7 Cmaj7 Fmaj7 Fmaj7


Verse 2:                                                        (1.57-2.23)
--------
      Cmaj7          Cmaj7            Fmaj7        Fmaj7
Berjalan jalan memecah genangan jejak air rintik hujan
    Cmaj7            Cmaj7                 Fmaj7        Fmaj7
Bergandeng tangan berdua nyanyikan lagu cinta nostalgia
         Em7          Fmaj7
(Denganmu) menggapai khayalan
         Em7          Fmaj/G
(Denganmu) uuuh


Chorus:                                                         (2.24-2.48)
-------
C          Cmaj7     C7           Fmaj7
Oh lihat kita bertaburan bunga bunga
       C              Cmaj7         C7            
Kupu kupu saling menyapa mengajak kita
        Fmaj7   Em7 Dm7  Em7      Fmaj7   Em7   Fmaj/G  
Terbang bersama ke  sana,     menari nari asmara



Intro x2 (instrumental break + Flute solo)                      (2.48-3.05)
--------
Cmaj7 Cmaj7 Fmaj7 Fmaj7


       Em7            Fmaj7
(Denganmu) mengisi lamunan                                      (3.06-3.20)
       Em7            Fmaj7
(Denganmu) menggapai khayalan
       Em7            Fmaj/G
(Denganmu)  .........bahagia


Chorus:                                                         (3.21-3.40)
-------
C          Cmaj7     C7           Fmaj7
Oh lihat kita bertaburan bunga bunga
       C              Cmaj7         C7            
Kupu kupu saling menyapa mengajak kita
        Fmaj7   Em7 Dm7  
Terbang bersama ke  sana,

C          Cmaj7     C7           Fmaj7                                                 
Oohh Hati kita bertaburan bunga-bunga                           (3.41-3.56)
       C              Cmaj7         C7 
Kupu-kupu saling menyapa mengajak kita

        Fmaj7   Em7 Dm7           Em7 
Terbang bersama ke sana (terbang bersama ke sana)               (3.57-4.14)
        Fmaj7   Em7 Dm7           Em7 
Menari di atas sana     (menari di atas sana)
        Fmaj7   Em7 Dm7           Em7 
Melantunkan lagu cinta  (melantunkan lagu cinta)
        Fmaj7   Em7 Dm7           Em7 
Menari nari asmara      (menari-nari asmara)


Outro: x4 (instrumental break)                                  (4.15-4.49)
---------
Cmaj7 Cmaj7 Fmaj7 Fmaj7


On 5th time play Cmaj7 until fade out                           (4.50-5.13)



=============================================================================


Woodwind Solo @ Instrumental break      (2.48-3.08)
----------------------------------
e|---------------------------------------------------------------------------|
B|---------------------8/10-8----8/10--------------8-------------------------|
G|-----5--5-7-7/9---------------------9p7h9----------10-8/9--7-55------------|
D|--5h7-7----------------------------------------7----------------7-5--------|
A|---------------------------------------------------------------------------|
E|---------------------------------------------------------------------------|

e|---------------------------------------------------------------------------|
B|-----------8---------------------------------------------------------------|
G|----5-7-7/9-9--7-5---------7/9-7-5-7~--------------------------------------|
D|--7-----------------7-5--7-------------------------------------------------|
A|--------------------------------------CONTINUE TO REST OF VERSE/PRECHORUS--|
E|---------------------------------------------------------------------------|


Woodwind @ Outro                        (4.15-4.50)
-----------------

e|---------------------------------------------|
B|------------8\-----------8\------------------|
G|-/9~-----7-----9~-----7-----9~----7-9--------|
D|--------------------------------------7~-----|
A|---------------------------------------------|
E|---------------------------------------------|x2

e|------------------------------------------------------|
B|---------------------8/--------10-8-------------------|
G|----5-7--7/9~-----7------9----------9-----7-9---------|
D|--7---------------------------------------------7-----|
A|------------------------------------------------------|
E|------------------------------------------------------|x2


Guitar lick @ Choruses (1.23-1.45) Timing is hard to get!
----------------------

                     Cmaj7                         F/Fmaj7

e|--8-/-10--8---------------------8-/-10--8--------8----8---8----------------|
B|--8-/-10--8--10----8---8--8-----8-/-10--8--10----10---10--10---------------|
G|-------------10----9---9--9----------------10----10---10--10---------------|
D|---------------------------------------------------------------------------|
A|---------------------------------------------------------------------------|
E|---------------------------------------------------------------------------|

                     Cmaj7                   Fmaj7 Em7 Dm7 Em7 Fmaj7 Em7 Fmaj/G

e|--8-/-10--8---------------------8-/-10--8------------------------------8---|
B|--8-/-10--8--10----8---8--8-----8-/-10--8--10--10--8--6---8----10--8---10--|
G|-------------10----9---9--9----------------10--8---7--5---7----8---7---10--|
D|-----------------------------------------------10--9--7---9----10--9---x---|
A|-----------------------------------------------9---7--5---7----9---8---10--|
E|---------------------------------------------------------------------------|

************************************

| /   slide up
| \   slide down
| h   hammer-on
| p   pull-off
| ~   vibrato
| +   harmonic
| x   Mute note
| b   Bend
| pb  Pre-bend
| br  Bend release
| pbr Pre-bend release
| brb Bend release bend

************************************
Добавлено: 06.07.2015
Другие материалы по этой песне:
  • Аккорды и текст

Страница создана 06.07.2015
http://primanota.ru/maliq-n-dessentials/menari-chords.htm
Привет, Гость.
Предлагаем пройти революционный курс по гитаре.
Подарок от PrimaNota.Ru, забирай!