PrimaNota.ru - самый крупный в мире бесплатный архив песенных текстов, аккордов, табулатур и нот


Malibu Stacy - Los Angeles - таба, видео

Регистрация Запомнить меня
Войти через:  Facebook Google Twitter Vk Yandex Mail.ru

Malibu Stacy - Los Angeles - таба, видео

Печатать
Просмотров: 195
Уроки эстрадного вокала в Санкт-Петербурге
-------------------------------------------------------------------------------
                                      LOS ANGELES - Malibu Stacy
-------------------------------------------------------------------------------



Tuning:Standard



Intro:
  G5               D5              E5
e|---------------------------------------------------------------------------|
B|---------------------------------------------------------------------------|
G|-----------------7-7-7-7-7-7-7-7-------------------------------------------|
D|-5-5-5-5-5-5-5-5-7-7-7-7-7-7-7-7-2-2-2-2-2-2-2-2-2-2-2-2-2-2-2-2-----------|
A|-5-5-5-5-5-5-5-5-5-5-5-5-5-5-5-5-2-2-2-2-2-2-2-2-2-2-2-2-2-2-2-2-----------|
E|-3-3-3-3-3-3-3-3-----------------0-0-0-0-0-0-0-0-0-0-0-0-0-0-0-0-----------|

   G5              D5              E5(2)
e|---------------------------------------------------------------------------|
B|---------------------------------------------------------------------------|
G|-----------------7-7-7-7-7-7-7-7-9-9-9-9-9-9-9-9-9-9-9-9-9-9-9-9-----------|
D|-5-5-5-5-5-5-5-5-7-7-7-7-7-7-7-7-9-9-9-9-9-9-9-9-9-9-9-9-9-9-9-9-----------|
A|-5-5-5-5-5-5-5-5-5-5-5-5-5-5-5-5-7-7-7-7-7-7-7-7-7-7-7-7-7-7-7-7-----------|
E|-3-3-3-3-3-3-3-3-----------------------------------------------------------|


Verse:

Palm Muted                                                                     x4
  G5               D5              E5
e|---------------------------------------------------------------------------|
B|---------------------------------------------------------------------------|
G|----------------/7-7-7-7-7-7-7-7-------------------------------------------|
D|-5-5-5-5-5-5-5-5/7-7-7-7-7-7-7-7-2-2-2-2-2-2-2-2-2-2-2-2-2-2-2-2-----------|
A|-5-5-5-5-5-5-5-5/5-5-5-5-5-5-5-5-2-2-2-2-2-2-2-2-2-2-2-2-2-2-2-2-----------|
E|-3-3-3-3-3-3-3-3-----------------0-0-0-0-0-0-0-0-0-0-0-0-0-0-0-0-----------|

Chorus:
  E5(2)            D5              G              G?
e|---------------------------------------------------------------------------|
B|---------------------------------------------------------------------------|
G|-9---9---9---9---7---7---7---7---4---4---4---4-4-5---5---5---5-------------|
D|-9---9---9---9---7---7---7---7---5---5---5---5-5-5---5---5---5-------------|
A|-7---7---7---7---5---5---5---5---5---5---5---5-5-5---5---5---5-------------|
E|---------------------------------3---3---3---3-3-3---3---3---3-------------|

   E5             F#5             G5                               C5
e|---------------------------------------------------------------------------|
B|---------------------------------------------------------------------------|
G|-9---9---9---9--11--11--11--11--12--12--12---121212--12--12--12--5---------|
D|-9---9---9---9--11--11--11--11--12--12--12---121212--12--12--12--5---------|
A|-7---7---7---7---9---9---9---9--10--10--10---101010--10--10--10--3---------|
E|---------------------------------------------------------------------------|

 Intro

 Verse
 
 Chorus

 
 Bridge:

                  G5                C5             D5
e|---------------------------------------------------------------------------|
B|---------------------------------------------------------------------------|
G|----------------12----------------5-5-x-5-5-5-x-x-7-7-x-7-7-7-x-x----------|
D|----------------12----------------5-5-x-5-5-5-x-x-7-7-x-7-7-7-x-x----------|
A|----------------10----------------3-3-x-3-3-3-x-x-5-5-x-5-5-5-x-x----------|
E|---------------------------------------------------------------------------|
  E5(2)           G5               C5             D5
e|---------------------------------------------------------------------------|
B|---------------------------------------------------------------------------|
G|-9-9-x-9-9-9-x-x1212-x121212-x-x-5-5-x-5-5-5-x-x-7-7-x-7-7-7---------------|
D|-9-9-x-9-9-9-x-x1212-x121212-x-x-5-5-x-5-5-5-x-x-7-7-x-7-7-7---------------|
A|-7-7-x-7-7-7-x-x1010-x101010-x-x-3-3-x-3-3-3-x-x-5-5-x-5-5-5---------------|
E|---------------------------------------------------------------------------|
                                                                                 x4
e|---------------------------------------------------------------------------|
B|---------------------------------------------------------------------------|
G|---4-----4---------4-----4-------------------------------------------------|
D|-----5-----5---------5-----5-----------------------------------------------|
A|-3-----3-----3-0-----------------------------------------------------------|
E|-----------------3-----3-----3-0-------------------------------------------|

Palm Muted
  E5                              C5 
e|---------------------------------------------------------------------------|
B|---------------------------------------------------------------------------|
G|---------------------------------5-5-5-5-5-5-5-5-5-5-5-5-5-5-5-5-----------|
D|-2-2-2-2-2-2-2-2-2-2-2-2-2-2-2-2-5-5-5-5-5-5-5-5-5-5-5-5-5-5-5-5-----------|
A|-2-2-2-2-2-2-2-2-2-2-2-2-2-2-2-2-3-3-3-3-3-3-3-3-3-3-3-3-3-3-3-3-----------|
E|-0-0-0-0-0-0-0-0-0-0-0-0-0-0-0-0-------------------------------------------|

   E5(2)           F#5              G5
e|---------------------------------------------------------------------------|
B|---------------------------------------------------------------------------|
G|-9-9-9-9-9-9-9-9-1111111111111111-12121212121212121212121212121212---------|
D|-9-9-9-9-9-9-9-9-1111111111111111-12121212121212121212121212121212---------|
A|-7-7-7-7-7-7-7-7--9-9-9-9-9-9-9-9-10101010101010101010101010101010---------|
E|---------------------------------------------------------------------------|

Chorus x2


************************************

| /   slide up
| \   slide down
| h   hammer-on
| p   pull-off
| ~   vibrato
| +   harmonic
| x   Mute note
| b   Bend
| pb  Pre-bend
| br  Bend release
| pbr Pre-bend release
| brb Bend release bend

************************************

Добавлено: 24.05.2012
Другие материалы по этой песне:

Страница создана 24.05.2012
http://primanota.ru/malibu-stacy/los-angeles-chords.htm
Привет, Гость.
Предлагаем пройти революционный курс по гитаре.
Подарок от PrimaNota.Ru, забирай!