PrimaNota.ru - самый крупный в мире бесплатный архив песенных текстов, аккордов, табулатур и нот


Malevolence - Serpents Chokehold - таба, видео

Регистрация Запомнить меня
Войти через:  Facebook Google Twitter Vk Yandex Mail.ru

Malevolence - Serpents Chokehold - таба, видео

Печатать
Просмотров: 100
D|-------------------------------------------------------------------|
A|-------------------------------------------------------------------|
F|-------------------------------------------------------------------|
C|------------------------------5-7--------------5-4-3-------6-5-3-0-|
G|----------------------5-------3-5-5-8-5-8-5----------5-4-3-6-5-3-0-|
C|--0-0-3-0-3-0--0-3/6----6-3-0----------------0-------------6-5-3-0-| x8


                                                                      p.m p.m
D|---------------------------------------3-0----------------------------------|
A|-------------------------------------------2---5-2--------------------------|
F|--------------------11-12-14-15-12-14--------3-----3-0----------------------|
C|--7--7-7-7-8-7-5-7---------------------------------------3--3-3-5-2-1-1-1-1-|
G|--5--5-5-5-6-5-3-5--9--10-12-13-10-12--------------------5--5-5-7-4-1-1-1-1-|
C|---------------------------------------------------------3--3-3-5-2-1-1-1-1-|
   x3

D|------------------------------------------------------------------------|
A|------------------------------------------------------------------------|
F|------------------------------------------------------------------------|
C|--0--0-0-8-7-------3---3-5-3--------------0-0-0-8-7-------------------1-|
G|--0--0-0-6-5---3-5---5-------5-3----------0-0-0-6-5-------5------5----1-|
C|--0--0-0-------------------------5-3-0----0-0-0------3/6----6-3----3--1-|
    x3

D|--------|
A|--------|
F|--------|
C|--0-0-0-|
G|--0-0-0-|
C|--0-0-0-|  Palm muted opens. Rhythm is impossible!!

D|-----------------------------|
A|--11--8-10--7---4-7-4--3-4-3-|
F|-----------------------------|
C|-----------------------------|
G|-----------------------------|
C|-----------------------------|

D|---------------------------------------------------------|
A|---------------------------------------------------------|
F|---------------------------------------------------------|
C|--0----0-1-4-1-3-5-5-8-7------------------5-3----------0-|
G|--0----0-1-4-1-3-3-3-6-5------5---------------5--5-3---0-|
C|--0----0-1-4-1-3---------3/6----6-3-0-3-5------------5-0-|


THIS IS FOR ONE GUITAR.
THIS IS BASIC, IN THE REAL SONG, THEY'RE ARE MUCH MORE FILLS.
Добавлено: 03.10.2013
Вам также может быть интересно:
Другие материалы по этой песне:
  • Аккорды и текст

Страница создана 03.10.2013
http://primanota.ru/malevolence/serpents-chokehold-chords.htm
Привет, Гость.
Предлагаем пройти революционный курс по гитаре.
Подарок от PrimaNota.Ru, забирай!