PrimaNota.ru - самый крупный в мире бесплатный архив песенных текстов, аккордов, табулатур и нот


Malevolence - Condemned To Misery - таба, видео

Регистрация Запомнить меня
Войти через:  Facebook Google Twitter Vk Yandex Mail.ru

Malevolence - Condemned To Misery - таба, видео

Печатать
Просмотров: 56
-------------------------------------------------------------------------------
                             Condemned to Misery - Malevolence
-------------------------------------------------------------------------------
Tabbed by: Joe Owens
E-mail: Slinkeedawg@gmail.com

Tuning: Drop C

Intro: (Fade in)
D|---------------------------------------------------------------------------|
A|---------------------------------------------------------------------------|
F|-----14--14--15--12--11-11-11/12/11--8--7----------------------------------|
C|---------------------------------------------------------------------------|
G|-----12--12--13--10--9--9--9/-10/9---6--5----------------------------------|
C|-0-------------------------------------------------------------------------|

D|---------------------------------------------------------------------------|
A|---------------------------------------------------------------------------|
F|--7/--17--17--19--15-14-14-14/15/14--11-7---------------7------------------|
C|---------------------------------------------------------------------------|
G|--5/--15--15--17--13-12-12-12/13/12--9--5---------------5------------------|
C|---------------------------------------------------------------------------|

D|---------------------------------------------------------------------------|
A|---------------------------------------------------------------------------|
F|-----14--14--15--12--11-11-11/12/11--8--7----------------------------------|
C|---------------------------------------------------------------------------|
G|-----12--12--13--10--9--9--9/-10/9---6--5----------------------------------|
C|---------------------------------------------------------------------------|

Guitar 1:

D|---------------------------------------------------------------------------|
A|---------------------------------------------------------------------------|
F|---------------------------------------------------------------------------|
C|--7-7-8-5-4----------------------------------------------------------------|
G|---------------------------------------------------------------------------|
C|---------------------------------------------------------------------------|

Guitar 2:

D|---------------------------------------------------------------------------|
A|---------------------------------------------------------------------------|
F|--5-5-7-3-2----------------------------------------------------------------|
C|---------------------------------------------------------------------------|
G|---------------------------------------------------------------------------|
C|---------------------------------------------------------------------------|

Guitar 1:

D|---------------------------------------------------------------------------|
A|---------------------------------------------------------------------------|
F|---------------------------------------------------------------------------|
C|-------------------------4h5h7-7h8p7---7---7-8-5-------4h5p4---------------|
G|---------3h5h6-----3h5h6-------------5-----------------------6-------------|
C|-000-000-------000----------------------0-0-0-0-0-0-0-0--------------------|

Guitar 2:

D|---------------------------------------------------------------------------|
A|---------------------------------------------------------------------------|
F|---------------------------------------------------------------------------|
C|---------------------------------------7---7-8-5-------4h5p4---------------|
G|-------------------------------------5-----------------------6-------------|
C|-000-000-------000----------------------0-0-0-0-0-0-0-0--------------------|

Guitar 1:

D|---------------------------------------------------------------------------|
A|---------------------------------------------------------------------------|
F|---------------------------------------5-5-5-5-7-3-2-2-2h3p2---------------|
C|-------------------------4h5h7-7h8p7-------------------------4-------------|
G|-----3h5h6---------3h5h6-------------5-------------------------------------|
C|-000-------000-000---------------------------------------------------------|

Guitar 2:

D|---------------------------------------------------------------------------|
A|---------------------------------------------------------------------------|
F|---------------------------------------------------------------------------|
C|---------------------------------------7-7-7-7-8-5-4-4-4h5p4---------------|
G|-------------------------------------5-----------------------6-------------|
C|-000-------000-000---------------------------------------------------------|

                                                                                 x4

Guitar 1 & 2:

D|----------------------------3+---------------------------------------------|
A|-----------------------------3+--------------------------------------------|
F|------------------------------3+-------------------------------------------|
C|------4-----5~----0------------------------4h5h7---------------------------|
G|------------1~----0------------------3h5h6---------------------------------|
C|-0--1----0--1~----0---------------0----------------------------------------|
              +  +  + *Timing

D|---------------------------------------------------------------------------|
A|---------------------------------------------------------------------------|
F|---------------------------------------------------------------------------|
C|------4-----5~-----------------------4-4-----------------------------------|
G|------------1~------3-3-5-5---6-6-5-5---6-6--------------------------------|
C|-0--1----0--1~--0-0--------0-0---------------------------------------------|


D|----------------------------3+---------------------------------------------|
A|-----------------------------3+--------------------------------------------|
F|------------------------------3+-------------------------------------------|
C|------4-----5~----0------------------------4h5h7---------------------------|
G|------------1~----0------------------3h5h6---------------------------------|
C|-0--1----0--1~----0---------------0----------------------------------------|
              +  +  + *Timing

D|---------------------------------------------------------------------------|
A|---------------------------------------------------------------------------|
F|---------------------------------------------------------------------------|
C|------4-----5~-------------------------------------------------------------|
G|------------1~------3-3-5-5---6-6-5-5--3*^---------------------------------|
C|-0--1----0--1~--0-0--------0-0---------------------------------------------|

D|----------------------------3+---------------------------------------------|
A|-----------------------------3+--------------------------------------------|
F|------------------------------3+-------------------------------------------|
C|------4-----5~----------------------------4h5h7----------------------------|
G|------------1~-0--0--0--0-----------3h5h6----------------------------------|
C|-0--1----0--1~-0--0--0--0---------0----------------------------------------|
              +  +  + *Timing

D|---------------------------------------------------------------------------|
A|---------------------------------------------------------------------------|
F|---------------------------------------------------------------------------|
C|------4-----5~------5/-7---8/-7--11-8--------------------------------------|
G|------------1~------3/-5---6/-5--9--6--------------------------------------|
C|-0--1----0--1~--0-0------0-------------------------------------------------|

D|----------------------------3+---------------------------------------------|
A|-----------------------------3+--------------------------------------------|
F|------------------------------3+-------------------------------------------|
C|------4-----5~----------------------------4h5h7----------------------------|
G|------------1~-0--0--0--0-----------3h5h6----------------------------------|
C|-0--1----0--1~-0--0--0--0---------0----------------------------------------|
              +  +  + *Timing

D|---------------------------------------------------------------------------|
A|---------------------------------------------------------------------------|
F|---------------------------------------------------------------------------|
C|------4-----5~------5/-7---8/-7--11-8--------------------------------------|
G|------------1~------3/-5---6/-5--9--6--------------------------------------|
C|-0--1----0--1~--0-0------0-------------------------------------------------|

Guitar 1:

D|---------------------------------------------------------------------------|
A|---------------------------------------------------------------------------|
F|---------------------------------------------------------------------------|
C|---7-5/-7--3----3-5-5*^-5p3p0-5-3------------------------------------------|
G|-0-5-3/-5-----5-------------------5--0-3-5-6--6-6/1-1-1--------------------|
C|-0-----------------------------------0-3-5-6--6-6/1-1-1--------------------|

Guitar 2:

D|---------------------------------------------------------------------------|
A|---------------------------------------------------------------------------|
F|-7\------------------------------------------------------------------------|
C|-7\------------------------------------------------------------------------|
G|-5\----------------------------------0-3-5-6--6-6/1-1-1--------------------|
C|-------------------------------------0-3-5-6--6-6/1-1-1--------------------|

Guitar 1:

D|---------------------------------------------------------------------------|
A|---------------------------------------------------------------------------|
F|---------------------------------------------------------------------------|
C|---7-5/-7--3----3-5-5*^-5p3p0-5-3------------------------------------------|
G|-0-5-3/-5-----5-------------------5--0-3-5-6--6-6--------------------------|
C|-0-----------------------------------0-3-5-6--6-6/11-11-11-----------------|
(This is the 11th fret not 1st)

Guitar 2:

D|---------------------------------------------------------------------------|
A|---------------------------------------------------------------------------|
F|---------------------------------------------------------------------------|
C|-0-------------------------------------------------------------------------|
G|-0-----------------------------------0-3-5-6--6-6--------------------------|
C|-0-----------------------------------0-3-5-6--6-6/11-11-11-----------------|

Guitars 1 and 2:

D|---------------------------------------------------------------------------|
A|---------------------------------------------------------------------------|
F|---------------------------------------------------------------------------|
C|---7-5/-7--3----3-5-5*^-5p3p0-5-3------------------------------------------|
G|-0-5-3/-5-----5-------------------5--0-3-5-6--6-6/1-1-1--------------------|
C|-0-----------------------------------0-3-5-6--6-6/1-1-1--------------------|

D|---------------------------------------------------------------------------|
A|---------------------------------------------------------------------------|
F|---------------------------------------------------------------------------|
C|---7-5/-7--3----3-5-5*^-5p3p0-5-3------------------------------------------|
G|-0-5-3/-5-----5-------------------5--0-3-5-6--6-6--------------------------|
C|-0-----------------------------------0-3-5-6--6-6/11-11-11-----------------| x2

(There's also a solo here but I'll tab that out in the future, I just want to get this 
up for everyone first)

Guitar 1:

D|---------------------------------------------------------------------------|
A|---------------------------------------------------------------------------|
F|---------------------------------------------------------------------------|
C|---5/-7---8/7--11/8--------------------------------------------------------|
G|-0-3/-5-0-6/5--9/-6--0-0------------4--1-----------------------------------|
C|-0------0------------0-0------------4--1-----------------------------------|

Guitar 2:

D|---------------------------------------------------------------------------|
A|---------------------------------------------------------------------------|
F|---------------------------------------------------------------------------|
C|------------------------11/8----8/5----------------------------------------|
G|-0-0-----------------0--9/-6--0-6/3--4--1----------------------------------|
C|-0-0-----------------0--------0------4--1----------------------------------|

Guitars 1 and 2:

D|------------------|---------------------------------------------------------|
A|------------------|---------------------------------------------------------|
F|------------------|---------------------------------------------------------|
C|-4--------1-----0-|---------------------------------------------------------|
G|-4--------1-----0-|---0--0--0--0--0--0--0-----------------------------------|
C|-4--------1-----0-|x2-0--0--0--0--0--0--0-----------------------------------|


D|---------------------------------------------------------------------------|
A|---------------------------------------------------------------------------|
F|---------------------------------------------------------------------------|
C|----------------------------------------------------5---5---5/8-8-8--------|
G|-4--1--0--0--4--1--0--4--1--5--4--1--4--1--0--0--0--3-0-3-0-3/6-6-6--------|
C|-4--1--0--0--4--1--0--4--1--5--4--1--4--1--0--0--0----0---0----------------|

D|---------------------------------------------------------------------------|
A|---------------------------------------------------------------------------|
F|---------------------------------------------------------------------------|
C|---------------------------------------------------------------------------|
G|-4--1--0--0--4--1--0--4--1--5--4--1--4--1--0--0--0--0-0--------------------|
C|-4--1--0--0--4--1--0--4--1--5--4--1--4--1--0--0--0--0-0--------------------|

Guitar 1:

D|---------------------------------------------------------------------------|
A|---------------------------------------------------------------------------|
F|---------------------------------------------------------------------------|
C|--5/7---8/7--11/8----------------------------------------------------------|
G|--3/5-0-6/5--9-/6----------------------------------------------------------|
C|------0--------------------------------------------------------------------|

Guitar 1 and 2:

D|---------------------------------------------------------------------------|
A|---------------------------------------------------------------------------|
F|---------------------------------------------------------------------------|
C|----------------------------------------------------5---5---5/8------------|
G|-4--1--0--0--4--1--0--4--1--5--4--1--4--1--0--0--0--3-0-3-0-3/6-6*~~-------|
C|-4--1--0--0--4--1--0--4--1--5--4--1--4--1--0--0--0----0---0----------------|

D|---------------------------------------------------------------------------|
A|---------------------------------------------------------------------------|
F|---------------------------------------------------------------------------|
C|---------------------------------------------------------------------------|
G|-4--1--0--0--4--1--0--4--1--5--4--1--4--1--0--0--0--0-0--------------------|
C|-4--1--0--0--4--1--0--4--1--5--4--1--4--1--0--0--0--0-0--------------------|

Guitar 1:

D|---------------------------------------------------------------------------|
A|---------------------------------------------------------------------------|
F|---------------------------------------------------------------------------|
C|--5/7---8/7--11/8----------------------------------------------------------|
G|--3/5-0-6/5--9-/6----------------------------------------------------------|
C|------0--------------------------------------------------------------------|

Guitar 1 and 2:

D|---------------------------------------------------------------------------|
A|---------------------------------------------------------------------------|
F|-8---7---------------------------------------------------------------------|
C|-8---7---------------------------------------------------------------------|
G|-6---5---0-----------------------------------------------------------------|
C|---------0-----------------------------------------------------------------|

D|---------------------------------------------------------------------------|
A|---------------------------------------------------------------------------|
F|---------------------------------------------------------------------------|
C|---------------7/8/7----------8-7-5-4-7-5-4---------7/8/7------------------|
G|---------0-----5/6/5------------------------6-0-----5/6/5------------------|
C|---------0-000-------00000000-----------------0-000-------000--------------|

Guitar 1 and 2:

D|---------------------------------------------------------------------------|
A|---------------------------------------------------------------------------|
F|---------------------------------------------------------------------------|
C|-----7----11---------------------------------------------------------------|
G|-----5----9-----1-4-3------------------------------------------------------|
C|-000---00----00-1-4-3------------------------------------------------------|

D|---------------------------------------------------------------------------|
A|---------------------------------------------------------------------------|
F|---------------------------------------------------------------------------|
C|---------------7/8/7----------8-7-5-4-7-5-4---------7/8/7------------------|
G|---------0-----5/6/5------------------------6-0-----5/6/5------------------|
C|---------0-000-------00000000-----------------0-000-------000--------------|

Guitar 2:

D|---------------------------------------------------------------------------|
A|---------------------------------------------------------------------------|
F|---------------------------------------------------------------------------|
C|--------0------------------------------------------------------------------|
G|--------0------------------------------------------------------------------|
C|--------0------------------------------------------------------------------|

Guitar 1:

D|---------------------------------------------------------------------------|
A|---------------------------------------------------------------------------|
F|-14/15-11/12-8-------------------------------------------------------------|
C|---------------------------------------------------------------------------|
G|-12/13--9/10-6-------------------------------------------------------------|
C|---------------------------------------------------------------------------|

Guitar 1 and 2:

D|---------------------------------------------------------------------------|
A|---------------------------------------------------------------------------|
F|---------------------------------------------------------------------------|
C|---------------7/8/7----------8-7-5-4-7-5-4---------7/8/7------------------|
G|---------0-----5/6/5------------------------6-0-----5/6/5------------------|
C|---------0-000-------00000000-----------------0-000-------000--------------|

D|---------------------------------------------------------------------------|
A|---------------------------------------------------------------------------|
F|---------------------------------------------------------------------------|
C|-----7----11---------------------------------------------------------------|
G|-----5----9-----1-4-3------------------------------------------------------|
C|-000---00----00-1-4-3------------------------------------------------------|

D|---------------------------------------------------------------------------|
A|---------------------------------------------------------------------------|
F|---------------------------------------------------------------------------|
C|---------------7/8/7----------8-7-5-4-7-5-4---------7/8/7------------------|
G|---------0-----5/6/5------------------------6-0-----5/6/5------------------|
C|---------0-000-------00000000-----------------0-000-------000--------------|

Guitar 1:

D|---------------------------------------------------------------------------|
A|---------------------------------------------------------------------------|
F|-14/15-11/12-8-------------------------------------------------------------|
C|---------------------------------------------------------------------------|
G|-12/13--9/10-6-------------------------------------------------------------|
C|---------------------------------------------------------------------------|

Guitar 1 and 2:

D|---------------------------------------------------------------------------|
A|---------------------------------------------------------------------------|
F|---------------------------------------------------------------------------|
C|---------------7/8/7----------8-7-5-4-7-5-4---------7/8/7------------------|
G|---------0-----5/6/5--0--0--0---------------6-0-----5/6/5-0----------------|
C|---------0-000--------0--0--0-----------------0-000-------0----------------|

D|---------------------------------------------------------------------------|
A|---------------------------------------------------------------------------|
F|---------------------------------------------------------------------------|
C|-----7----11---------------------------------------------------------------|
G|-0---5----9-----1-4-3------------------------------------------------------|
C|-0-----00----00-1-4-3------------------------------------------------------|

D|---------------------------------------------------------------------------|
A|---------------------------------------------------------------------------|
F|---------------------------------------------------------------------------|
C|---------------7/8/7----------8-7-5-4-7-5-4---------7/8/7------------------|
G|---------0-----5/6/5--0--0--0---------------6-0-----5/6/5-0----------------|
C|---------0-000--------0--0--0-----------------0-000-------0----------------|

Guitar 1:

D|---------------------------------------------------------------------------|
A|---------------------------------------------------------------------------|
F|-14/15-11/12-8-5/8---------------------------------------------------------|
C|---------------------------------------------------------------------------|
G|-12/13--9/10-6-3/6-0-3-----------------------------------------------------|
C|-----------------------4*~~------------------------------------------------|

Guitar 1 and 2:

D|---------------------------------------------------------------------------|
A|---------------------------------------------------------------------------|
F|---------------------------------------------------------------------------|
C|--------------------------------------5-------7---8-7----------------------|
G|-1-0--0-0-0-0-3-4-3-1-3-1-1-0-0-0-0-0-3-0-0-0-5-0-6-5----------------------|
C|-1-0--0-0-0-0-3-4-3-1-3-1-1-0-0-0-0-0---0-0-0---0--------------------------|

D|---------------------------------------------------------------------------|
A|---------------------------------------------------------------------------|
F|---------------------------------------------------------------------------|
C|---------------------------------4------8--5-------------------------------|
G|-0-0-0-0-3-4-3-1-3-1-1-0-0-0-0-0--5-0-0--9--6------------------------------|
C|-0-0-0-0-3-4-3-1-3-1-1-0-0-0-0-0----0-0------------------------------------|

D|---------------------------------------------------------------------------|
A|---------------------------------------------------------------------------|
F|---------------------------------------------------------------------------|
C|--------------------------------------5-------7---5-4----------------------|
G|-1-0--0-0-0-0-3-4-3-1-3-1-1-0-0-0-0-0-3-0-0-0-5-0-6-5----------------------|
C|-1-0--0-0-0-0-3-4-3-1-3-1-1-0-0-0-0-0---0-0-0---0--------------------------|
                                                    ^ Powerchords change to harmonies


D|---------------------------------------------------------------------------|
A|---------------------------------------------------------------------------|
F|---------------------------------------------------------------------------|
C|---------------------------------4------8--5-------------------------------|
G|-0-0-0-0-3-4-3-1-3-1-1-0-0-0-0-0--5-0-0--9--6------------------------------|
C|-0-0-0-0-3-4-3-1-3-1-1-0-0-0-0-0----0-0------------------------------------|
                                      Change Tempo here

D|---------------------------------------------------------------------------|
A|---------------------------------------------------------------------------|
F|---------------------------------------------------------------------------|
C|---------------------------------------------------------5-----------------|
G|-1--0---0--0--0--0--3--4--3--1--3--1--1--0--0--0--0--0---3-0--0--0--------0|
C|-1--0---0--0--0--0--3--4--3--1--3--1--1--0--0--0--0--0-0---0--0--0--0--1*-0|
                                                                      ^ Strike this note hard
D|---------------------------------------------------------------------------|
A|---------------------------------------------------------------------------|
F|---------------------------------------------------------------------------|
C|------------------------------------------------4---------8---5------------|
G|-0--0--0--0--3--4--3--1--3--1--1--0--0--0--0--0---5--0--0---9---6----------|
C|-0--0--0--0--3--4--3--1--3--1--1--0--0--0--0--0------0--0------------------| x2


D|---------------------------------------------------------------------------|
A|---------------------------------------------------------------------------|
F|---------------------------------------------------------------------------|
C|---------------------------------------------------------------------------|
G|-1--0----------------------------------------------------------------------|
C|-1--0----------------------------------------------------------------------|
   Let palm muted notes ring out

Didn't tab out the palm mutes/open strumming but I'm sure you can figure that out by 
listening to the song.

There's also a faint sounding acoustic guitar in the intro if anyone wants to help me 
out tabbing that out.

Leave a comment if you think I've missed anything.

Cheers.

************************************

| /   slide up
| \   slide down
| h   hammer-on
| p   pull-off
| ~   vibrato
| +   harmonic
| *   pinch harmonic
| x   Mute note
| b   Bend
| pb  Pre-bend
| br  Bend release
| pbr Pre-bend release
| brb Bend release bend

************************************
Добавлено: 26.07.2015
Вам также может быть интересно:
Другие материалы по этой песне:
  • Аккорды и текст

Страница создана 26.07.2015
http://primanota.ru/malevolence/condemned-to-misery-chords.htm
Привет, Гость.
Предлагаем пройти революционный курс по гитаре.
Подарок от PrimaNota.Ru, забирай!