PrimaNota.ru - самый крупный в мире бесплатный архив песенных текстов, аккордов, табулатур и нот


Malefice - Horizon Burns - таба, видео

Регистрация Запомнить меня
Войти через:  Facebook Google Twitter Vk Yandex Mail.ru

Malefice - Horizon Burns - таба, видео

Печатать
Просмотров: 120
Song: Horizon Burns
by: Malefice
Album: Entities
Track: 7
Tabbed by: David Fairbairn

Tuning: Drop C Tuning (CGCFAD)

I belive this is the 1st malefice guitar tab so there are bits that are wrong.
let me no for corrections and comments at fairbairn.dave@yahoo.co.uk

H - above the tab means harmonic
p - pull off
/ - slid
~ - let ring
x - dead note

malefice have 2 guitars at some points i have atempted to tab both guitars but at most points
i think there doing the same thing or i have worked it into 1 riff.
also for most of the song i have used single notes rather than chords but there mayb more
chords in here than iv used!

Intro:
Guitar1:                            H 
D|-------------------------------------------------------------------------|
A|-------------------------------------------------------------------------|
F|-------------------------------------------------------------------------|
C|----------------------------------------2~-------2~-------2~-------2~----|
G|----------------------------------5-----2~-------2~-------2~-------2~----|
C|-22222-22-55555-55-00000-00-00000---0-2-2~-000-2-2~-000-2-2~-000-2-2~-00-|

Guitar 2:
         x4      x4      x8
D|-------|-------|-------|
A|-------|-----3-|-------|
F|---0-4-|---4---|---0-4-|
C|-2-----|-5-----|-0-----|
G|-------|-------|-------|
C|-------|-------|-------|

Verse 1:
                                           x2                             
D|---------|---------|---------|-----------|
A|---------|---------|---------|---------3-|
F|---0-4---|---0-4---|---0-4---|---0-4-----|
C|-2-----4-|-2-----4-|-0-----4-|-0-----4---|
G|---------|---------|---------|-----------|
C|---------|---------|---------|-----------|

2nd time round second guitar comes in very quitly doing something like this:
guitar 2: 
         x10     x10
D|-------|-------|
A|-------|-------|
F|---0-4-|---0-4-|
C|-2-----|-0-----|
G|-------|-------|
C|-------|-------|

Chorus:

D|------------------------------------------------------------------------------|
A|-----------------------12-12------------------------12-12---------------------|
F|---------------------9----------------------------9---------------------------|
C|------------------------------------------------------------------------------|
G|------------------------------------------------------------------------------|
C|-2-222-2-222-2-222-2----------5-555-5-555-5-555-5---------0-000-0-000-0-000-0-|
                                      x2
D|------------------------------------|
A|---10-10---------------------12-----|
F|-7------------------------------9-9-|
C|------------------------------------|
G|------------------------------------|
C|---------0-000-0-000-0-000-0--------|

Fill:
Guitar1:
D|---------------------------------------------------------------------------|
A|---------------------------------------------------------------------------|
F|---------------------------------------------------------------------------|
C|------------------------------------------2~-------2~-------2~-------2~----|
G|------------------------------------------2~-------2~-------2~-------2~----|
C|-22222-22-55555-55-00000-00-00000-000-0-2-2~-000-2-2~-000-2-2~-000-2-2~-00-|

Guitar 2:
         x4      x4      x8
D|-------|-------|-------|
A|-------|-----3-|-------|
F|---0-4-|---4---|---0-4-|
C|-2-----|-5-----|-0-----|
G|-------|-------|-------|
C|-------|-------|-------|

Verse 2:
                                           x2                             
D|---------|---------|---------|-----------|
A|---------|---------|---------|---------3-|
F|---0-4---|---0-4---|---0-4---|---0-4-----|
C|-2-----4-|-2-----4-|-0-----4-|-0-----4---|
G|---------|---------|---------|-----------|
C|---------|---------|---------|-----------|

2nd time round second guitar comes in very quitly doing something like this:
guitar 2: 
         x10     x10
D|-------|-------|
A|-------|-------|
F|---0-4-|---0-4-|
C|-2-----|-0-----|
G|-------|-------|
C|-------|-------|

Chorus:

D|------------------------------------------------------------------------------|
A|-----------------------12-12------------------------12-12---------------------|
F|---------------------9----------------------------9---------------------------|
C|------------------------------------------------------------------------------|
G|------------------------------------------------------------------------------|
C|-2-222-2-222-2-222-2----------5-555-5-555-5-555-5---------0-000-0-000-0-000-0-|
                                      x2
D|------------------------------------|
A|---10-10---------------------12-----|
F|-7------------------------------9-9-|
C|------------------------------------|
G|------------------------------------|
C|---------0-000-0-000-0-000-0--------|


Interlude:
           H             H             H             H
D|-------|-------------|-------------|-------------|-------|
A|-------|-------------|-------------|-------------|-------|
F|-------|-------------|-------------|-------------|-------|
C|-------|-------------|-------------|-------------|-------|
G|-------|-5-----------|-5-----------|-5-----------|-5-----|
C|-22222-|---0-1-22222-|---0-1-22222-|---0-1-22222-|---0-1-|

D|-------------------------------------------|
A|-------------------------------------------|
F|-------------------------------------------|
C|-------------------------------------------|
G|-------------------------------------------|
C|-032-0-320-2/3p0-320-2/3p0-320-2/3p0-2/3p0-|

BRIEF PAUSE FOR A SCREAM
                                                   x2
D|-------------------------------------------------|
A|-------------------------------------------------|
F|-------------------------------------------------|
C|-------------------------------------------------|
G|-------------------------------------------------|
C|-032-0-320-2/3p0-320-2/3p0-320-2/3p0-2/3p0-2/3p0-|

                                                         x4
D|-------------------------------------------------------|
A|-------------------------------------------------------|
F|-------------------------------------------------------|
C|-------------2h3-------------3h5-----------------------|
G|-------------------------------------------------------|
C|-00-00-00-00-----00-00-00-00-----00-00-00-00-6532-5320-|

                         x2
D|-----------------------|
A|-----------------------|
F|-----------------------|
C|-0-23-0-35-0-----------|
G|-----------------------|
C|-------------6532-5320-|

                                                         x2
D|-------------------------------------------------------|
A|-------------------------------------------------------|
F|-------------------------------------------------------|
C|-------------2h3-------------3h5-----------------------|
G|-------------------------------------------------------|
C|-00-00-00-00-----00-00-00-00-----00-00-00-00-6532-5320-|

D|-------------------------|
A|-------------------------|
F|------12-14-12-9-12-7-11-|
C|------x--x--x--x-x--x/x--|
G|------10-12-10-7-10-5/9--|
C|-0000--------------------|

Chorus:

D|------------------------------------------------------------------------------|
A|-----------------------12-12------------------------12-12---------------------|
F|---------------------9----------------------------9---------------------------|
C|------------------------------------------------------------------------------|
G|------------------------------------------------------------------------------|
C|-2-222-2-222-2-222-2----------5-555-5-555-5-555-5---------0-000-0-000-0-000-0-|
                                      x2
D|------------------------------------|
A|---10-10---------------------12-----|
F|-7------------------------------9-9-|
C|------------------------------------|
G|------------------------------------|
C|---------0-000-0-000-0-000-0--------|

Outro:
D------------------------------------------------------------------------------------------------|
A|-----------------------------------------------------------------------------------------------|
F|-----------------------------------------------------------------------------------------------|
C|-----------------------------------------------------------------------------------------------|
G|-----------------------------------------------------------------------------------------------|
C|2-222-2-222-2-222-2-222-5-555-5-555-5-555-5-555-0-000-0-000-0-000-0-000-0-000-0-000-0-000-0-000|

D|------------------|
A|------------------|
F|-12-14-12-9-12-7~-|
C|-x--x--x--x-x--x~-|
G|-10-12-10-7-10-5~-|
C|------------------|

MALEFICE ROCK!!!!!
Добавлено: 07.06.2012
Другие материалы по этой песне:
  • Аккорды и текст

Страница создана 07.06.2012
http://primanota.ru/malefice/horizon-burns-chords.htm
Привет, Гость.
Предлагаем пройти революционный курс по гитаре.
Подарок от PrimaNota.Ru, забирай!