PrimaNota.ru - самый крупный в мире бесплатный архив песенных текстов, аккордов, табулатур и нот


Malajube - Montreal -40 - таба, видео

Регистрация Запомнить меня
Войти через:  Facebook Google Twitter Vk Yandex Mail.ru

Malajube - Montreal -40 - таба, видео

Печатать
Просмотров: 127
Уроки эстрадного вокала в Санкт-Петербурге
Standard tuning (E-A-D-G-B-E)

Intro (x2):

     A       Asus4     A     F+      Dm        F+

E|---------------------------5---5---5-5---5---5-5---|
B|---5---5---5-5---5---5-5---6---6---6-6---6---6-6---|
G|---6---6---6-7---7---6-6---6---6---6-7---7---6-6---|
D|---7---7---7-7---7---7-7---------------------------|
A|---------------------------------------------------|
E|---------------------------------------------------|

     D                         Dm      Dm6       Dm

E|---5---5---5-5---5---5-5-----5---5---5-7---7---5--5---|
B|---7---7---7-7---7---7-7-----6---6---6-6---6---6--6---|
G|---7---7---7-7---7---7-7-----7---7---7-7---7---7--7---|
D|------------------------------------------------------|
A|------------------------------------------------------|
E|------------------------------------------------------|

Verse (x2):

A      C#7      D      Dm   Dm6 Dm

Chorus (x2):

A      G#m      F#m      Dm

Bridge :

E|-------9--------9-10-----9-------9-10-----7-------7-8-----7-8-7---------|
B|-----10--10---10-------8---8---8--------6---6---6-------6-------6---6---|
G|---9--------9--------9-------9--------7-------7-------7-----------7-----|
D|------------------------------------------------------------------------|
A|------------------------------------------------------------------------|
E|------------------------------------------------------------------------|

E|-------9--------9-10-----9-------9-10-----7-------7-8-----7-8-8s10------|
B|-----10--10---10-------8---8---8--------6---6---6-------6---------------|
G|---9--------9--------9-------9--------7-------7-------7-----------------|
D|------------------------------------------------------------------------|
A|------------------------------------------------------------------------|
E|------------------------------------------------------------------------|

A      C#7      D      Dm   Dm6 Dm

Verse (x2):

A      C#7      D      Dm   

Chorus (x2) : 

A      G#m      F#m      Dm

Interlude :

     C#                      F#                F#                C#               (x3)

E|---13-------13---------|---14-------14-------14-------14-------13-------13---------|
B|---------14-------14---|---------14-------14-------14-------14-------14-------14---|
G|------16-------16------|------16-------16-------16-------16-------16-------16------|
D|-----------------------|-----------------------------------------------------------|
A|-----------------------|-----------------------------------------------------------|
E|-----------------------|-----------------------------------------------------------|

                                                                            (x2)

E|-----------------------------------------------------------------------------|
B|---17-17-17-17-17-17-15-15-15-15-15-15-14-14-14-14-14-14-12-12-12-12-12-12---|
G|-----------------------------------------------------------------------------|
D|-----------------------------------------------------------------------------|
A|-----------------------------------------------------------------------------|
E|-----------------------------------------------------------------------------|

F#m      D      A      C#      

Добавлено: 19.07.2013
Другие материалы по этой песне:
  • Аккорды и текст

Страница создана 19.07.2013
http://primanota.ru/malajube/montreal-40-chords.htm
Привет, Гость.
Предлагаем пройти революционный курс по гитаре.
Подарок от PrimaNota.Ru, забирай!