PrimaNota.ru - самый крупный в мире бесплатный архив песенных текстов, аккордов, табулатур и нот


Makthaverskan - Witness - таба, видео

Регистрация Запомнить меня
Войти через:  Facebook Google Twitter Vk Yandex Mail.ru

Makthaverskan - Witness - таба, видео

Печатать
Просмотров: 162
Уроки эстрадного вокала в Санкт-Петербурге
Makthaverskan - Witness
A-side from the Witness 7" (Luxury Records 2015).

Tabbed by Isaac Murguia, February 2015.
Originally uploaded to Ultimate-Guitar.com
Contact: www.youtube.com/user/Goadiroth

INTRO 1:
  Guitar 1
e|----------------------------------------|----------------------------------------|
B|----------------------------------------|----------------------------------------|
G|-----7-7-9-9-10-10-12-12-10-10-9-9-10-9-|-------9-9-10-10-9-9-----10-10-9-9-10-9-|
D|-0-0------------------------------------|-10-10---------------7-7----------------|
A|----------------------------------------|----------------------------------------|
E|----------------------------------------|----------------------------------------| [x2]
  Guitar 2 (comes in on 2nd repetition of gtr 1)
e|----------------------------------------|----------------------------------------|
B|----------------------------------------|--------------10------------------------|
G|----------------------------------------|-10-------------------------------------|
D|----------------------------------------|-10-------------------------------------|
A|----------------------------------------|-8--------------------------------------|
E|----------------------------------------|----------------------------------------|

INTRO 2:
  Guitar 1 plays same as INTRO 1 [x2]

  Guitar 2 (listen to song for strumming patterns)
e|-5-----5-----8------12-----|
B|-5-----5-----8------12-----|
G|-7-----7-----10-----14-----|
D|-7-----7-----10-----14-----|
A|-5-----5-----8------12-----|
E|---------------------------|

CHORUS:
e|------------------------------------|---------------------------------|
B|-----10----------------10-----------|---------------------------------|
G|-7-7-----9-9-10-9--7-7-----9-9-10-9-|-10-10-10-9-9-9-7-7--5--5-7-5-7\-|
D|------------------------------------|---------------------------------|
A|------------------------------------|---------------------------------|
E|------------------------------------|---------------------------------|

e|------------------------------------|---------------------------------------|
B|-----10----------------10-----------|---------------11--11-11-11-10-8-11-10-|
G|-7-7-----9-9-10-9--7-7-----9-9-10-9-|-5-5-5/10-10-9-------------------------|
D|------------------------------------|---------------------------------------|
A|------------------------------------|---------------------------------------|
E|------------------------------------|---------------------------------------|

VERSE 1:
  Guitar 1
          [x2]
e|-----------------------|------------------------|-----------------------|
B|-----------------------|------------------------|-----------------------|
G|-7--10-9-7-5-----5-7-5-|-7--10-9-12-5-----5-7-5-|-7--10-9-7-5-----5-7-5-|
D|--------------7--------|---------------7--------|--------------7--------|
A|-----------------------|------------------------|-----------------------|
E|-----------------------|------------------------|-----------------------| [x2]
  Guitar 2
e|-------5------5------5--------|---------8------------------------------|
B|-----5----5------5------5---5-|-------8----8----8-----------8--------8-|
G|---7--------7------7------7---|----10--------10----------10----10------|
D|-7----------------------------|-10--------------------10----------10---|
A|------------------------------|---------------------8------------------|
E|------------------------------|----------------------------------------| [x2]

e|-------5-------------5--------|---------8------------------------------|
B|-----5----5--------5----5-----|-------8----8----8-----------8--------8-|
G|---7--------7----7--------7---|----10--------10----------10----10------|
D|-7-------------7--------------|-10--------------------10----------10---|
A|------------------------------|---------------------8------------------|
E|------------------------------|----------------------------------------| [x2]

Repeat INTRO 2
Repeat CHORUS

VERSE 2:
  Guitar 1
          [x2]
e|-----------------------|------------------------|-----------------------|
B|-----------------------|------------------------|-----------------------|
G|-7--10-9-7-5-----5-7-5-|-7--10-9-12-5-----5-7-5-|-7--10-9-7-5-----5-7-5-|
D|--------------7--------|---------------7--------|--------------7--------|
A|-----------------------|------------------------|-----------------------|
E|-----------------------|------------------------|-----------------------| [x2]
  Guitar 2
e|-------5------5------5--------|---------8------------------------------|
B|-----5----5------5------5---5-|-------8----8----8-----------8--------8-|
G|---7--------7------7------7---|----10--------10----------10----10------|
D|-7----------------------------|-10--------------------10----------10---|
A|------------------------------|---------------------8------------------|
E|------------------------------|----------------------------------------| [x4]

BRIDGE:
  Guitar 1
e|-----------------------------------------------|
B|-----------------------------------------------|
G|---2222---5-5555-323----222-2--5-55-5/7-77-5---|
D|-0------0-------------0----0-----------------7-|
A|-----------------------------------------------|
E|-----------------------------------------------| [x6]
  Guitar 2 (comes in on 3rd repetition of gtr 1)
e|----------------------------------------------------|
B|----------------------------------------------------|
G|-7-77-77-9-99-99-10--10-10--10-10--12--12-12--12-12-|
D|----------------------------------------------------|
A|----------------------------------------------------|
E|----------------------------------------------------| [x4]

OUTRO:
  Guitar 1
e|----------------------------------------|----------------------------------------|
B|----------------------------------------|----------------------------------------|
G|-----7-7-9-9-10-10-12-12-10-10-9-9-10-9-|-------9-9-10-10-9-9-----10-10-9-9-10-9-|
D|-0-0------------------------------------|-10-10---------------7-7----------------|
A|----------------------------------------|----------------------------------------|
E|----------------------------------------|----------------------------------------| [x2]

e|-------------------------------------------|----------------------------------------|
B|-------------------------------------------|----------------------------------------|
G|-----7-7-9-9-10-10-12-12-10-10-14-14-12-12-|-------9-9-10-10-9-9-----10-10-9-9-10-9-|
D|-0-0---------------------------------------|-10-10---------------7-7----------------|
A|-------------------------------------------|----------------------------------------|
E|-------------------------------------------|----------------------------------------| [x2]
  Guitar 2 (listen to song for strumming patterns)
e|-5-----5-----8------12-----|
B|-5-----5-----8------12-----|
G|-7-----7-----10-----14-----|
D|-7-----7-----10-----14-----|
A|-5-----5-----8------12-----|
E|---------------------------| [x4]

ENDING NOTES:
  Guitar 1
e|----------|
B|----------|
G|-7--------|
D|----------|
A|----------|
E|----------|
  Guitar 2
e|-5--------|
B|-5--------|
G|-7--------|
D|-7--------|
A|-5--------|
E|----------|

End. Please rate! :D
Добавлено: 09.06.2015
Другие материалы по этой песне:
  • Аккорды и текст

Страница создана 09.06.2015
http://primanota.ru/makthaverskan/witness-chords.htm
Привет, Гость.
Предлагаем пройти революционный курс по гитаре.
Подарок от PrimaNota.Ru, забирай!