PrimaNota.ru - самый крупный в мире бесплатный архив песенных текстов, аккордов, табулатур и нот


Makthaverskan - Asleep - таба, видео

Регистрация Запомнить меня
Войти через:  Facebook Google Twitter Vk Yandex Mail.ru

Makthaverskan - Asleep - таба, видео

Печатать
Просмотров: 95
Уроки эстрадного вокала в Санкт-Петербурге
Makthaverskan - Asleep
Track 2 from the album "II" (2013).

Tabbed by Isaac Murguia, December 2014.
Originally uploaded to Ultimate-Guitar.com
Contact: www.youtube.com/user/Goadiroth

INTRO:
e|-0----0----2----2--0--|
B|-2----0----2----3--3--|
G|-2----1----2----2--2--|
D|-2----2----4----0--0--|
A|-0----2----4----------|
E|------0----2----------| [x2]

POST-CHORUS:
e|----------------|---------------------|----------------------------------|
B|----------------|---------------------|----------------------------------|
G|----------------|---------------------|----------------------------------|
D|-7-6-7-9--9-7-6-|-7-6-7-12--12--12-12-|-14-12-11-7--7-7--14-12-11-7--7-9-|
A|----------------|---------------------|----------------------------------|
E|----------------|---------------------|----------------------------------|

VERSE 1:
e|-------------------------------------|----------------------------------|
B|-------------------------------------|----------------------------------|
G|-----------------------------9--7--6-|-----------------------------9--7-|
D|-7---7-6-------------6---------------|-7---7-6-------------6------------|
A|---------7-7-7777-77---7-9-----------|---------7-7-7777-77---7-9--------|
E|-------------------------------------|----------------------------------|

CHORUS:
          [x3]
e|---------------------|-------------------|
B|---------------------|-------------------|
G|-6-6-7-7-7/9-9999999-|-6-6-7-7-4-4444444-|
D|---------------------|-------------------|
A|---------------------|-------------------|
E|---------------------|-------------------|
          [x3]
e|---------------------|-------------------|
B|---------------------|-------------------|
G|-6-6-7-7-7/9-9999999-|-6-6-7-7-4-44-6666-|
D|---------------------|-------------------|
A|---------------------|-------------------|
E|---------------------|-------------------|

Repeat POST-CHORUS
Repeat VERSE 1

VERSE 2:
           [x3]
e|---------------------|-----------|-2--0------|
B|---------------------|-----------|-3--3------|
G|---9-9-9-9---9-9-9-9-|---9-9-9-9-|-2--2------|
D|-7---------6---------|-7---------|-0--0------|
A|---------------------|-----------|-----------|
E|---------------------|-----------|-----------|

Repeat CHORUS (instead of 4 "6"s at the very end, you can play the 4s.)

BRIDGE:
          [x2]         "..it's not me you're dreamin of..." 
e|-0----2----2-0---0-|-0-----------------------------|
B|-2----3----3-3---2-|-2-----------------------------|
G|-2----4----2-2---2-|-2-----------------------------|
D|-2----4----0-----2-|-2-----------------------------|
A|-0----2----------0-|-0-----------------------------|
E|-------------------|-------------------------------|

Repeat CHORUS (instead of 4 "6"s at the very end, you can play the 4s.)

END CHORD:
e|--0------|
B|--2------|
G|--2------|
D|--2------|
A|--0------|
E|---------|

End. Please rate :D
Добавлено: 09.06.2015
Другие материалы по этой песне:
  • Аккорды и текст

Страница создана 09.06.2015
http://primanota.ru/makthaverskan/asleep-chords.htm
Привет, Гость.
Предлагаем пройти революционный курс по гитаре.
Подарок от PrimaNota.Ru, забирай!