PrimaNota.ru - самый крупный в мире бесплатный архив песенных текстов, аккордов, табулатур и нот


Making April - Jump In - текст песни, таба, видео

Регистрация Запомнить меня
Войти через:  Facebook Google Twitter Vk Yandex Mail.ru

Making April - Jump In - текст песни, таба, видео

Печатать
Просмотров: 123
Song Title- Jump In
Album-Runaway world
Tabber-Johnny McCallef

Tune down guitar either a 1/2 step or a whole step...

(Intro/Verse)

Jump in don't............

Eb---------------------------------------|
Bb---------------------------------------|
Gb---------------------------------------|
Db-------0-------0-------0-------0-------|
Ab-------5-------2-------4-------0-------|
Eb-------7-------3-------5-------2-------|


(Pre-Chorus)

But where do you go............

Eb---------------x---------x-------------|
Bb---------------x---------x-------------|
Gb---------------x---------x-------------|
Db-----0----0----x----0----x----0----0---|
Ab-----2----2----x----4----x----5----4---|
Eb-----3----3----x----5----x----7----5---|


(Build up)

There's nothing better than............

Eb---------------------------------------|
Bb---------------------------------------|
Gb---------------------------------------|
Db----0-----0------0------0--------------|
Ab----2-----4------2------4--------------|
Eb----3-----5------3------5--------------|


(Chorus)

So wake me when you see............

Eb---------------------------------------|
Bb---------------------------------------|
Gb---------------------------------------|
Db-------0-------0-------0-------0-------|
Ab-------5-------2-------4-------0-------|
Eb-------7-------3-------5-------2-------|


Figured it out just call............

Eb---------------------------------------|
Bb---------------------------------------|
Gb---------------------------------------|
Db-------0-------0-------0-------0-------|
Ab-------5-------4-------2-------4-------|
Eb-------7-------5-------3-------5-------|


(Intro/Verse)

Take in this world you've............

Eb---------------------------------------|
Bb---------------------------------------|
Gb---------------------------------------|
Db-------0-------0-------0-------0-------|
Ab-------5-------2-------4-------0-------|
Eb-------7-------3-------5-------2-------|


(Pre-Chorus)

But where do you go............

Eb---------------x---------x-------------|
Bb---------------x---------x-------------|
Gb---------------x---------x-------------|
Db-----0----0----x----0----x----0----0---|
Ab-----2----2----x----4----x----5----4---|
Eb-----3----3----x----5----x----7----5---|


(Build up)

There's something better for............

Eb---------------------------------------|
Bb---------------------------------------|
Gb---------------------------------------|
Db----0-----0------0------0--------------|
Ab----2-----4------2------4--------------|
Eb----3-----5------3------5--------------|


(Chorus)

So wake me when you see............

Eb---------------------------------------|
Bb---------------------------------------|
Gb---------------------------------------|
Db-------0-------0-------0-------0-------|
Ab-------5-------2-------4-------0-------|
Eb-------7-------3-------5-------2-------|


Figure it out just call............

Eb---------------------------------------|
Bb---------------------------------------|
Gb---------------------------------------|
Db-------0-------0-------0-------0-------|
Ab-------5-------4-------2-------4-------|
Eb-------7-------5-------3-------5-------|



(Solo) (Repeat progression twice)

Eb---------------------------------------|
Bb---------------------------------------|
Gb---------------------------------------|
Db--------0--------0---------0-----------|
Ab--------5--------4---------2-----------|
Eb--------7--------5---------3-----------|


(Bridge)

And we're on our way to the lives.........

Eb---------------------------------------|
Bb---------------------------------------|
Gb---------------------------------------|
Db-------0-----0-----0-----0-------------|
Ab-------5-----4-----5-----2-------------|
Eb-------7-----5-----7-----3-------------|


And we're on our way...........

Eb---------------------------------------|
Bb---------------------------------------|
Gb---------------------------------------|
Db-------0-----------------0-------------|
Ab-------5-----------------4-------------|
Eb-------7-----------------5-------------|


(Pre-Chorus)

Your holding back on me once again......

Eb---------------x---------x-------------|
Bb---------------x---------x-------------|
Gb---------------x---------x-------------|
Db-----0----0----x----0----x----0----0---|
Ab-----2----2----x----4----x----5----4---|
Eb-----3----3----x----5----x----7----5---|


(Build up)

through, ‘cause your last............

Eb---------------------------------------|
Bb---------------------------------------|
Gb---------------------------------------|
Db----0-----0------0------0--------------|
Ab----2-----4------2------4--------------|
Eb----3-----5------3------5--------------|


(Chorus)

So wake me when you see............

Eb---------------------------------------|
Bb---------------------------------------|
Gb---------------------------------------|
Db-------0-------0-------0-------0-------|
Ab-------5-------2-------4-------0-------|
Eb-------7-------3-------5-------2-------|


Figure it out just call............

Eb---------------------------------------|
Bb---------------------------------------|
Gb---------------------------------------|
Db-------0-------0-------0-------0-------|
Ab-------5-------4-------2-------4-------|
Eb-------7-------5-------3-------5-------|


Get up you're falling behind............

Eb---------------------------------------|
Bb---------------------------------------|
Gb---------------------------------------|
Db-------0-------0-------0-------0-------|
Ab-------5-------4-------2-------4-------|
Eb-------7-------5-------3-------5-------|


End on D
Добавлено: 17.06.2012
Другие материалы по этой песне:
  • Аккорды и текст

Страница создана 17.05.2012
http://primanota.ru/making-april/jump-in-chords.htm
Привет, Гость.
Предлагаем пройти революционный курс по гитаре.
Подарок от PrimaNota.Ru, забирай!