PrimaNota.ru - самый крупный в мире бесплатный архив песенных текстов, аккордов, табулатур и нот


Makeout Videotape - Heat Wave - таба, видео

Регистрация Запомнить меня
Войти через:  Facebook Google Twitter Vk Yandex Mail.ru

Makeout Videotape - Heat Wave - таба, видео

Печатать
Просмотров: 119
awesome slacker jam off "heat wave!" from mac's original project, makeout videotape.

pretty sure this is 2 guitars, but i'll post what i got anyway.

-=intro=-

open d tuning, capo 1 (tab is relative)

play very very dirty (and loud)

D |-----------------------------5--0--x--|
A |--------7--5--------------0--5--0--x--|
F#|-----6--------------8--------5--0--x--|
D |--7-----------7--9-----9-----5--0--x--|
A |-----------------------------5--0--x--|
D |-----------------------------5--0--x--|

-=verse=-

D |----2--5--|
A |----5--5--|
F#|----5--5--|
D |----5--5--|
A |----2--5--|
D |----2--5--|

???

fat flat

small tall

i'll take them all

running up and down

hadn't brought me up

they just don't stop

-=chorus=-

D |--------5--0--x--|
A |--5--0--5--0--x--|
F#|--6--8--5--0--x--|
D |--7--9--5--0--x--|
A |--0--0--5--0--x--|
D |--------5--0--x--|

i'm gettin back into oompah (?????)

D |-----------------------------5--0--x--|
A |--------7--5--------------0--5--0--x--|
F#|-----6--------------8--------5--0--x--|
D |--7-----------7--9-----9-----5--0--x--|
A |-----------------------------5--0--x--|
D |-----------------------------5--0--x--|

-=verse=-

D |----2--5--|
A |----5--5--|
F#|----5--5--|
D |----5--5--|
A |----2--5--|
D |----2--5--|

soundproof

sex-proof

gettin loose

what have i done

i'm shook

handbook

she'll cook

i'd rather run

-=chorus=-

D |--------5--0--x--|
A |--5--0--5--0--x--|
F#|--6--8--5--0--x--|
D |--7--9--5--0--x--|
A |--0--0--5--0--x--|
D |--------5--0--x--|

i'm gettin back into oompah (?????)

D |-----------------------------5--0--x--|
A |--------7--5--------------0--5--0--x--|
F#|-----6--------------8--------5--0--x--|
D |--7-----------7--9-----9-----5--0--x--|
A |-----------------------------5--0--x--|
D |-----------------------------5--0--x--|

end on the 5th fret barre thingy
Добавлено: 13.05.2015
Другие материалы по этой песне:
  • Аккорды и текст

Страница создана 13.05.2015
http://primanota.ru/makeout-videotape/heat-wave-chords.htm
Привет, Гость.
Предлагаем пройти революционный курс по гитаре.
Подарок от PrimaNota.Ru, забирай!