PrimaNota.ru - самый крупный в мире бесплатный архив песенных текстов, аккордов, табулатур и нот


Makeout Videotape - Don Juan - бас-таба, видео

Регистрация Запомнить меня
Войти через:  Facebook Google Twitter Vk Yandex Mail.ru

Makeout Videotape - Don Juan - бас-таба, видео

Печатать
Просмотров: 57
"Don Juan // Some Other Ones" - Makeout Videotape

Verso
G|----------------------------------------------------------------------|
D|------------------3-3--3-3---3---1-1--3--------5\---------------------|     X2
A|--3-3--3-3---3-----------------------------5-5-------3-3--3-3---3-----|
E|----------------------------------------------------------------------|

Coro
G|--------------------------------------------|
D|--3-3--3-3--3/5-----------------------------|      X3
A|-----------------3-3--3-3---3---------------|
E|--------------------------------------------|

G|---------------------------------------|
D|---1-1--3--------5\--------------------|
A|------------5-5-------3-3--3-3---3-----|
E|---------------------------------------|


Visit our Webpage !!

-Mac Demarco Chile
https://www.facebook.com/MacDeMarcoCL
Добавлено: 27.12.2015
Другие материалы по этой песне:
  • Аккорды и текст

Страница создана 27.12.2015
http://primanota.ru/makeout-videotape/don-juan-chords.htm
Привет, Гость.
Предлагаем пройти революционный курс по гитаре.
Подарок от PrimaNota.Ru, забирай!