PrimaNota.ru - самый крупный в мире бесплатный архив песенных текстов, аккордов, табулатур и нот


Makeout Videotape - Blondie - таба, видео

Регистрация Запомнить меня
Войти через:  Facebook Google Twitter Vk Yandex Mail.ru

Makeout Videotape - Blondie - таба, видео

Печатать
Просмотров: 82
-------------------------------------------------------------------------------
                             BLONDIE - Makeout Videotape
-------------------------------------------------------------------------------
Tabbed by: Chico sweet cheecks
E-mail:

Capo on 2nd fret, Tabbed relative to
capo

Tuning: standard


     G G G G G G   G*G*G*G*G*G*
e|---0-0-0-0-0-0---x-x-x-x-x-x------------|
B|---3-3-3-3-3-3---3-3-3-3-3-3------------|
G|---4-4-4-4-4-4---5-5-5-5-5-5------------|
D|---5-5-5-5-5-5---4-4-4-4-4-4------------|  x5 for intro
A|---5-5-5-5-5-5---5-5-5-5-5-5------------|
E|---x-x-x-x-x-x---x-x-x-x-x-x------------|


G      G*               G               G*
Do you regret all those things that you did to me
G               G*         G            G*
Know that there killing me gone out and cheated me


     Em      Gm
e|---0-------3--------|
B|---0-------3--------|
G|---0-------3--------|
D|---2-------5--------|
A|---2-------5--------|
E|---0-------3--------|

Em          Gm
B-L-O-N-D-I-E
            G  G* G G*
baby you'll see (HE HE HE HEEE)
            G  G* G G*
baby you'll see

(rest of the song works the same)

You'll see how the times have changed
my hearts been rearranged
Loved you then but not today
Quick to sing and hard to say

B-L-O-N-D-I-E
baby you'll see
baby you'll see
(solo)


G*          G-bar
baby you'll see

ENDS ON

e|---xx-xx-xx-xx-xx-xx---3~--------|
B|---3x-3x-3x-3x-3x-3x---3~--------|
G|---5x-5x-5x-5x-5x-5x---4~--------|
D|---4x-4x-4x-4x-4x-4x---5~--------|
A|---5x-5x-5x-5x-5x-5x---5~--------|
E|---xx-xx-xx-xx-xx-xx---3~--------|


************************************

| /   slide up
| \   slide down
| h   hammer-on
| p   pull-off
| ~   vibrato
| +   harmonic
| x   Mute note
| b   Bend
| pb  Pre-bend
| br  Bend release
| pbr Pre-bend release
| brb Bend release bend

************************************
Добавлено: 13.12.2015
Другие материалы по этой песне:
  • Аккорды и текст

Страница создана 13.12.2015
http://primanota.ru/makeout-videotape/blondie-chords.htm
Привет, Гость.
Предлагаем пройти революционный курс по гитаре.
Подарок от PrimaNota.Ru, забирай!