PrimaNota.ru - самый крупный в мире бесплатный архив песенных текстов, аккордов, табулатур и нот


Make Them Suffer - Widower - таба, видео

Регистрация Запомнить меня
Войти через:  Facebook Google Twitter Vk Yandex Mail.ru

Make Them Suffer - Widower - таба, видео

Печатать
Просмотров: 211
Song: Widower
Artist: Make Them Suffer
Album: Neverbloom
Year: 2012
Tuning: Drop A
Website: www.neverbloom.com

Both guitars are the same throughout the song.


                           0:11
B ||-------------------------------|---------------------------------|
F#||-------------------------------|---------------------------------|
D ||-------------------------------|---------------------------------|
A ||-------------------------------|---------------------------------|
E ||------------------------5------|----1----------------------------|
A ||------------------------5------|----1----------------------------|




0:16
     PM      PM PM          PM PM
----------------------------------|
----------------------------------|
----------------------------------|
----------------------------------|
----------------------------------|
-0---0--0----0--0--0----0---0--0--|


 PM  PM     PM       PM     PM       PM         PM PM     PM     PM
----------------------------------|-----------------------------------|
----------------------------------|-----------------------------------|
----------------------------------|-----------------------------------|
----------------------------------|-----------------------------------|
------------------5---------------|-----------------------------------|
-0---0--0---0--0-----0--0---0--0--|-1--1----1---1—-1--1---1--1---1--1-|


    PM        PM PM   PM    PM           PM      PM PM         PM PM
----------------------------------|-----------------------------------|
----------------------------------|-----------------------------------|
----------------------------------|-----------------------------------|
----------------------------------|-----------------------------------|
-------------------4--------------|-----------------------------------|
----1--1---1--1--1----1—1---1--1--|--0---0--0-----0--0--0---0---0--0--|


      PM     PM      PM     PM       PM          PM PM     PM     PM
----------------------------------|------------------------------------|
----------------------------------|------------------------------------|
----------------------------------|------------------------------------|
----------------------------------|------------------------------------|
------------------5---------------|------------------------------------|
-0---0--0---0--0-----0--0---0--0--|--1--1----1---1--1--1---1--1---1--1-|






        0:32
  PM        PM PM    PM     PM            PM         PM PM
----------------------------------|------------------------------------|
----------------------------------|------------------------------------|
----------------------------------|------------------------------------|
----------------------------------|------------------------------------|
-----------------4----------------|------------------------------------|
--1--1---1--1--1-----1--1---1--1--|--0----0--0-------0--0--0---0-------|


 PMPMPMPM PMPMPMPM    PM     PM       PM                PM     PM
-----------------------------------|-----------------------------------|
-----------------------------------|-----------------------------------|
-----------------------------------|-----------------------------------|
-----------------------------------|-----------------------------------|
-0-0-0-0--0-0-0-0--5---------------|-----------------------------------|
-0-0-0-0--0-0-0-0-----0--0---0--0--|--1--1-----1------1---1--1---1--1--|


             PM PM    PM     PM            PM          PM PM
-----------------------------------|-----------------------------------|
-----------------------------------|-----------------------------------|
-----------------------------------|-----------------------------------|
-----------------------------------|-----------------------------------|
------------------4----------------|-----------------------------------|
-----1---1---1--1-----1--1---1--1--|--0----0--0--------0--0--0---0-----|


 PMPMPMPM PMPMPMPM    PM     PM       PM                  PM    PM
-----------------------------------|-----------------------------------|
-----------------------------------|-----------------------------------|
-----------------------------------|-----------------------------------|
-----------------------------------|-----------------------------------|
-0-0-0-0--0-0-0-0--5---------------|-----------------------------------|
-0-0-0-0--0-0-0-0-----0--0---0--0--|--1--1-----1------1---1--1---1--1--|







        0:48
             PM PM    PM     PM
-----------------------------------|-----------------------------------|
-----------------------------------|-----------------------------------|
-----------------------------------|-----------------------------------|
-----------------------------------|-----------------------------------|
------------------4----------------|-----------------------------------|
-----1---1---1--1-----1--1---1--1--|--0-0-0-0-0-0-0-0-0-0-0-0-0-0-1-1--|


-----------------------------------|-----------------------------------|
-----------------------------------|-----------------------------------|
-----------------------------------|-----------------------------------|
-----------------------------------|-----------------------------------|
--4-4-------------4-4--------------|-----------------------------------|
------1-1-0-0-1-1-----1-1-0-0-1-1--|--0-0-0-0-0-0-0-0-0-0-0-0-0-0-1-1--|


-----------------------------------|-----------------------------------|
-----------------------------------|-----------------------------------|
-----------------------------------|-----------------------------------|
------------------7-7-7-7-7-7-7-7--|-----------------------------------|
--4-4-------------5-5-5-5-5-5-5-5--|-----------------------------------|
------1-1-0-0-1-1-4-4-4-4-4-4-4-4--|--0-0-0-0-0-0-0-0-0-0-0-0-0-0-1-1--|


-----------------------------------|-----------------------------------|
-----------------------------------|-----------------------------------|
-----------------------------------|-----------------------------------|
-----------------------------------|-----------------------------------|
--4-4-------------4-4--------------|-----------------------------------|
------1-1-0-0-1-1-----1-1-0-0-1-1--|--0-0-0-0-0-0-0-0-0-0-0-0-0-0-1-1--|







        1:04
                                          PM     PM      PM PM PM PM
-----------------------------------|-----------------------------------|
-----------------------------------|-----------------------------------|
-----------------------------------|-----------------------------------|
------------------7-7-7-7-7--------|-----------------------------------|
--4-4-------------4-4-4-4-4--------|---------------------0--0--0--0----|
------1-1-0-0-1-1-4-4-4-4-4--------|--0---0--0---0--0----0--0--0--0----|


   PM PM PM PM  PMPMPMPM  PMPMPMPM
------------------------------------|
------------------------------------|
------------------------------------|
------------------------------------|
---0--0--0--0---0-0-0-0---0-0-0-0---|
---0--0--0--0---0-0-0-0---0-0-0-0---|


      PM     PM       PM PM PM PM
-------------------------------------|----------------------------------|
-------------------------------------|----------------------------------|
-------------------------------------|----------------------------------|
-------------------------------------|---------------------4------------|
----------------------0--0--0--0-----|--------------------------6-------|
--1---0--0---0--0-----0--0--0--0-----|-----4-4-0-0-1-1-4-------------4--|


      PM      PM                                                  PM
-------------------------------------|----------------------------------|
-------------------------------------|----------------------------------|
-------------------------------------|----------------------------------|
-------------------------------------|----------------------------------|
-------------------------------------|----------------------------------|
--1---0--0----0--0------0-0-0-0------|-----0-0-0-0------0-0-0-0---0--0--|


      PM     PM       PM PM PM PM                    PMPMPMPM  PMPMPMPM
-------------------------------------|----------------------------------|
-------------------------------------|----------------------------------|
-------------------------------------|----------------------------------|
-------------------------------------|----------------------------------|
----------------------0--0--0--0-----|---------------0-0-0-0---0-0-0-0--|
--1---0--0---0--0-----0--0--0--0-----|---4-4-0-0-1-1-0-0-0-0---0-0-0-0--|







1:20
       PM       PM PM         PM PM         PM     PM      PM     PM
-------------------------------------|----------------------------------|
-------------------------------------|----------------------------------|
-------------------------------------|----------------------------------|
-------------------------------------|----------------------------------|
-------------------------------------|------------------5---------------|
--0----0—0------0--0--0---0---0--0---|--0---0--0---0--0----0--0---0--0--|


  PM          PM PM     PM     PM         PM          PM   PM     PM
-------------------------------------|----------------------------------|
-------------------------------------|----------------------------------|
-------------------------------------|----------------------------------|
-------------------------------------|----------------------------------|
-------------------------------------|------------------4---------------|
--1--1----1---1--1--1---1--1---1--1--|----1--1----1---1----1--1---1--1--|


        PM       PM PM         PM PM        PM     PM       PM     PM
-------------------------------------|----------------------------------|
-------------------------------------|----------------------------------|
-------------------------------------|----------------------------------|
-------------------------------------|----------------------------------|
-------------------------------------|-------------------5--------------|
--0-----0--0-----0--0--0---0---0--0--|--0---0--0---0--0-----0--0---0--0-|


  PM          PM PM     PM     PM          PM      PM PM   PM     PM
-------------------------------------|----------------------------------|
-------------------------------------|----------------------------------|
-------------------------------------|----------------------------------|
-------------------------------------|----------------------------------|
-------------------------------------|------------------4---------------|
--1--1----1---1--1--1---1--1---1--1--|---1--1---1--1--1----1--1---1--1--|







1:36
-----------------------------------|-----------------------------------|
-----------------------------------|-----------------------------------|
-----------------------------------|-----------------------------------|
-----------------------------------|-----------------------------------|
-----------------------------------|-----------------------------------|
--0-0-0-0-0-0-0-0-0-0-0-0-0-0-0-0--|--0-0-0-0-0-0-0-0-0-0-0-0-0-0-0-0--|


-----------------------------------|-----------------------------------|
-----------------------------------|-----------------------------------|
-----------------------------------|-----------------------------------|
-----------------------------------|-----------------------------------|
-----------------------------------|------------------4-4-----4-4------|
--1-1-1-1-1-1-1-1-1-1-1-1-1-1-1-1--|--1-1-1-1-1-1-1-1-----1-1-----1-1--|


-----------------------------------|-----------------------------------|
-----------------------------------|-----------------------------------|
-----------------------------------|-----------------------------------|
-----------------------------------|-----------------------------------|
-----------------------------------|-----------------------------------|
--0-0-0-0-0-0-0-0-0-0-0-0-0-0-0-0--|--0-0-0-0-0-0-0-0-0-0-0-0-0-0-0-0--|


-----------------------------------|-----------------------------------|
-----------------------------------|-----------------------------------|
-----------------------------------|-----------------------------------|
-----------------------------------|-----------------------------------|
-----------------------------------|-----------------------------------|
--1-1-1-1-1-1-1-1-1-1-1-1-1-1-1-1--|--1-1-1-1-1-1-1-1-1----------------|







1:52
 PM PM PM PM PM PM   PM PM PM PM   PM PM  PM PM PM PM  PM PM PM PM PM PM PM PM
----------------------------------------|-------------------------------------|
----------------------------------------|-------------------------------------|
----------------------------------------|-------------------------------------|
----------------------------------------|-------------------------------------|
-0--0--0--0--0--0----0--0--0--0----0--0-|--0--0--0--0---0--0--0--0--0--0--0--0|
-0--0--0--0--0--0----0--0--0--0----0--0-|--0--0--0--0---0--0--0--0--0--0--0--0|


 PM PM PM PM PM PM   PM PM PM PM   PM PM
----------------------------------------|--------------------------------|
----------------------------------------|--------------------------------|
----------------------------------------|--------------------------------|
----------------------------------------|--------------------------------|
-0--0--0--0--0--0----0--0--0--0----0--0-|------------4-4-----------------|
-0--0--0--0--0--0----0--0--0--0----0--0-|----1-1-0-0-----1-1-0-0-1-1-4-4-|


-----------------------------------|-------------------------------------|
-----------------------------------|-------------------------------------|
-----------------------------------|-------------------------------------|
-----------------------------------|-------------------------------------|
-----------------------------------|-------------------------------------|
--0-0-0-0-0-0-----0-0-0-0-----0-0--|-------0-0-0-0------0-0-0-0-0-0-0-0--|


 PM PM PM PM PM PM   PM PM PM PM   PM PM
----------------------------------------|--------------------------------|
----------------------------------------|--------------------------------|
----------------------------------------|--------------------------------|
----------------------------------------|-------------4-----------4------|
-0--0--0--0--0--0----0--0--0--0----0--0-|-----------------5--------------|
-0--0--0--0--0--0----0--0--0--0----0--0-|-------4--1----------4----------|







2:08
-----------------------------------|-------------------------------------|
-----------------------------------|-------------------------------------|
-----------------------------------|-------------------------------------|
-----------------------------------|-------------------------------------|
-----------------------------------|---4-4-------------4-4---------------|
--0-0-0-0-0-0-0-0-0-0-0-0-0-0-1-1--|-------1-1-0-0-1-1-----1-1-0-0-1-1---|


-----------------------------------|-------------------------------------|
-----------------------------------|-------------------------------------|
-----------------------------------|-------------------------------------|
-----------------------------------|-------------------7-7-7-7-7-7-7-7---|
-----------------------------------|---4-4-------------4-4-4-4-4-4-4-4---|
--0-0-0-0-0-0-0-0-0-0-0-0-0-0-1-1--|-------1-1-0-0-1-1-4-4-4-4-4-4-4-4---|


-----------------------------------|-------------------------------------|
-----------------------------------|-------------------------------------|
-----------------------------------|-------------------------------------|
-----------------------------------|-------------------------------------|
-----------------------------------|---4-4-------------4-4---------------|
--0-0-0-0-0-0-0-0-0-0-0-0-0-0-1-1--|-------1-1-0-0-1-1-----1-1-0-0-1-1---|


------------------------------------|-------------------------------------|
------------------------------------|-------------------------------------|
------------------------------------|-------------------------------------|
------------------------------------|-------------------7-7-7-7-7---------|
------------------------------------|---4-4-------------4-4-4-4-4---------|
---0-0-0-0-0-0-0-0-0-0-0-0-0-0-1-1--|-------1-1-0-0-1-1-4-4-4-4-4---------|







2:24
     PM     PM PM PM     PM    PM                  PMPMPMPM    PMPMPMPM
------------------------------------|-------------------------------------|
------------------------------------|-------------------------------------|
------------------------------------|-------------------------------------|
------------------------------------|-------------------------------------|
------------------------------------|--------------0-0-0-0-----0-0-0-0----|
-0---0--0---0--0--0--0---0—0---0--0-|----0-0-0-0---0-0-0-0-----0-0-0-0----|



     PM     PM PM PM     PM     PM
-------------------------------------|------------------------------------|
-------------------------------------|------------------------------------|
-------------------------------------|------------------------------------|
-------------------------------------|-------4-----------------4----------|
-------------------------------------|-----------5--------5--------5------|
-1---0--0---0--0--0--0---0--0---0--0-|---------------4-----------------4--|


     PM     PM PM PM     PM     PM                    PMPMPMPM
-------------------------------------|------------------------------------|
-------------------------------------|------------------------------------|
-------------------------------------|------------------------------------|
-------------------------------------|------------------------------------|
-------------------------------------|----------------0-0-0-0-------------|
-1---0--0---0--0--0--0---0--0---0--0-|-----0-0-0-0----0-0-0-0-----1b------|


     PM     PM PM PM    PM PM     PM
---------------------------------------|----------------------------------|
---------------------------------------|----------------------------------|
---------------------------------------|----------------------------------|
---------------------------------------|----------------------------------|
---------------------------------------|-------------4-4------------------|
-1---0--0---0--0--0--0--0--0--0---0--0-|-----0-0-1-1-----1-1-0-0-4-4-1-1--|







2:40
      PM     PM PM PM    PM    PM                PM PM      PM     PM
-------------------------------------|------------------------------------|
-------------------------------------|------------------------------------|
-------------------------------------|------------------------------------|
----------------------------------4--|------------------------------------|
--------------------5-------------5--|-----------------1----0------0------|
--1---0--0---0--0-0-----0--0---0--4--|-----------0--0--1----0------0------|


      PM     PM PM PM    PM     PM                             PM   PM
-------------------------------------|------------------------------------|
-------------------------------------|------------------------------------|
-------------------------------------|------------------------------------|
-------------------------------------|------------------------------------|
---------------------5---------------|-------------4-4---------2----1-----|
--1---0--0---0--0--0-----0--0---0--0-|-----0-0-1-1-----1-1-0-0-2----1-----|


      PM     PM PM PM    PM    PM                PM PM      PM     PM
-------------------------------------|------------------------------------|
-------------------------------------|------------------------------------|
-------------------------------------|------------------------------------|
----------------------------------4--|------------------------------------|
--------------------5-------------5--|-----------------1----0------0------|
--1---0--0---0--0-0-----0--0---0--4--|-----------0--0--1----0------0------|


      PM     PM PM PM    PM     PM
-------------------------------------|------------------------------------|
-------------------------------------|------------------------------------|
-------------------------------------|------------------------------------|
-------------------------------------|------------------------------------|
---------------------5---------------|------------------------------------|
--1---0--0---0--0--0-----0--0---0--0-|------------------------------------|







2:56
        PM PM PM          PM PM                   PM PM    PM PM    PM
-------------------------------------|------------------------------------|
-------------------------------------|------------------------------------|
-------------------------------------|------------------------------------|
-------------------------------------|------------------------------------|
--------0--0--0--------0--0--0-------|------------0--0--0--0--0--0--0-----|
--------0--0--0--------0--0--0-------|------------0--0--0--0--0--0--0-----|




        PM PM PM          PM PM                   PM PM    PM PM PM PM
-------------------------------------|------------------------------------|
-------------------------------------|------------------------------------|
-------------------------------------|------------------------------------|
-------------------------------------|------------------------------------|
--------0--0--0--------0--0--0-------|------------0--0--0--0--0--2--1-----|
--------0--0--0--------0--0--0-------|------------0--0--0--0--0--2--1-----|


    PM PM PM                                      PM PM    PM PM    PM
-------------------------------------|------------------------------------|
-------------------------------------|------------------------------------|
-------------------------------------|------------------------------------|
-------------------------------------|------------------------------------|
----0--0--0--------------------------|------------0--0--0--0--0--0--0-----|
----0--0--0-----------1b-------------|------------0--0--0--0--0--0--0-----|


    PM PM PM              PM PM
-------------------------------------|------------------------------------|
-------------------------------------|------------------------------------|
-------------------------------------|------------------------------------|
-------------------------------------|-----------4------------4-----------|
----0--0--0------------0--0--0-------|----------------5------------5------|
----0--0--0------------0--0--0-------|-----1--0------------4--------------|


        PM PM PM          PM PM                   PM PM    PM PM    PM
-------------------------------------|------------------------------------|
-------------------------------------|------------------------------------|
-------------------------------------|------------------------------------|
-------------------------------------|------------------------------------|
--------0--0--0--------0--0--0-------|------------0--0--0--0--0--0--0-----|
--------0--0--0--------0--0--0-------|------------0--0--0--0--0--0--0-----|


        PM PM PM          PM PM                   PM PM    PM PM PM PM
-------------------------------------|------------------------------------|
-------------------------------------|------------------------------------|
-------------------------------------|------------------------------------|
-------------------------------------|------------------------------------|
--------0--0--0--------0--0--0-------|------------0--0--0--0--0--2--1-----|
--------0--0--0--------0--0--0-------|------------0--0--0--0--0--2--1-----|




        PM PM PM                                  PM PM    PM PM    PM
-------------------------------------|------------------------------------|
-------------------------------------|------------------------------------|
-------------------------------------|------------------------------------|
-------------------------------------|------------------------------------|
--------0--0--0----------------------|------------0--0--0--0--0--0--0-----|
--------0--0--0----------------------|------------0--0--0--0--0--0--0-----|




    PM PM PM              PM PM
-------------------------------------|------------------------------------|
-------------------------------------|------------------------------------|
-------------------------------------|------------------------------------|
-------------------------------------|-----------4------------4-----------|
----0--0--0------------0--0--0-------|----------------5------------5------|
----0--0--0------------0--0--0-------|-----1--0------------4--------------|








        3:39
-------------------------------------|---------------------------------|
-------------------------------------|---------------------------------|
-------------------------------------|---------------------------------|
-------------------------------------|---------------------------------|
------------------------------5------|----1----------------------------|
------------------------------5------|----1----------------------------|







3:44
     PM      PM PM          PM PM
----------------------------------|
----------------------------------|
----------------------------------|
----------------------------------|
----------------------------------|
-0---0--0----0--0--0----0---0--0--|


 PM  PM     PM       PM     PM       PM         PM PM     PM     PM
----------------------------------|-----------------------------------|
----------------------------------|-----------------------------------|
----------------------------------|-----------------------------------|
----------------------------------|-----------------------------------|
------------------5---------------|-----------------------------------|
-0---0--0---0--0-----0--0---0--0--|-1--1----1---1—-1--1---1--1---1--1-|


    PM        PM PM   PM    PM           PM      PM PM         PM PM
----------------------------------|-----------------------------------|
----------------------------------|-----------------------------------|
----------------------------------|-----------------------------------|
----------------------------------|-----------------------------------|
-------------------4--------------|-----------------------------------|
----1--1---1--1--1----1—1---1--1--|--0---0--0-----0--0--0---0---0--0--|


      PM     PM      PM     PM       PM          PM PM     PM     PM
----------------------------------|------------------------------------|
----------------------------------|------------------------------------|
----------------------------------|------------------------------------|
----------------------------------|------------------------------------|
------------------5---------------|------------------------------------|
-0---0--0---0--0-----0--0---0--0--|--1--1----1---1--1--1---1--1---1--1-|







        4:00
  PM        PM PM    PM     PM
----------------------------------|------------------------------------|
----------------------------------|------------------------------------|
----------------------------------|------------------------------------|
----------------------------------|------------------------------------|
-----------------4----------------|------------------------------------|
--1--1---1--1--1-----1--1---1--1--|--0-0-0-0-0-0-0-0-0-0-0-0-0-0-0-0---|



----------------------------------|------------------------------------|
----------------------------------|------------------------------------|
----------------------------------|------------------------------------|
----------------------------------|------------------------------------|
----------------------------------|------------------------------------|
--0-0-0-0-0-0-0-0-0-0-0-0-0-0-0-0-|--1-1-1-1-1-1-1-1-1-1-1-1-1-1-1-1---|


----------------------------------|------------------------------------|
----------------------------------|------------------------------------|
----------------------------------|------------------------------------|
----------------------------------|------------------------------------|
----------------------------------|------------------------------------|
--1-1-1-1-1-1-1-1-1-1-1-1-1-1-1-1-|--0-0-0-0-0-0-0-0-0-0-0-0-0-0-0-0---|


----------------------------------|------------------------------------|
----------------------------------|------------------------------------|
----------------------------------|------------------------------------|
----------------------------------|------------------------------------|
----------------------------------|------------------------------------|
--0-0-0-0-0-0-0-0-0-0-0-0-0-0-0-0-|--1-1-1-1-1-1-1-1-1-1-1-1-1-1-1-1---|







        4:16
                                          PM        PM PM
----------------------------------|------------------------------------|
----------------------------------|------------------------------------|
----------------------------------|------------------------------------|
----------------------------------|------------------------------------|
----------------------------------|------------------------------------|
--1-1-1-1-1-1-1-1-1---------------|--0----0--0------0--0--0----0-------|



PMPMPMPM PMPMPMPM    PM     PM        PM                  PM     PM
-----------------------------------|-----------------------------------|
-----------------------------------|-----------------------------------|
-----------------------------------|-----------------------------------|
-----------------------------------|-----------------------------------|
-0-0-0-0--0-0-0-0--5---------------|-----------------------------------|
-0-0-0-0--0-0-0-0-----0--0---0--0--|--1--1-----1------1---1--1---1--1--|


             PM PM    PM     PM           PM       PM PM
-----------------------------------|-----------------------------------|
-----------------------------------|-----------------------------------|
-----------------------------------|-----------------------------------|
-----------------------------------|-----------------------------------|
------------------4----------------|-----------------------------------|
-----1---1---1--1-----1--1---1--1--|--0-----0--0-------0--0---0--0-----|


PMPMPMPM PMPMPMPM    PM     PM        PM                  PM     PM
-----------------------------------|-----------------------------------|
-----------------------------------|-----------------------------------|
-----------------------------------|-----------------------------------|
-----------------------------------|-----------------------------------|
-0-0-0-0--0-0-0-0--5---------------|-----------------------------------|
-0-0-0-0--0-0-0-0-----0--0---0--0--|--1--1-----1------1---1--1---1--1--|


             PM PM    PM     PM             PM
-----------------------------------|-----------------------------------||
-----------------------------------|-----------------------------------||
-----------------------------------|-----------------------------------||
-----------------------------------|-----------------------------------||
------------------4----------------|-----------------------------------||
-----1---1---1--1-----1--1---1--1--|--0-----0--0-----------------------||



Tablature Legend
----------------
PM - palm mute
b - bend
L - tied note
x - dead note
g - grace note
(n) - ghost note
> - accentuded note
PH - pitch harmonic
h - hammer on
p - pull off
Добавлено: 19.11.2013
Другие материалы по этой песне:

Страница создана 26.10.2013
http://primanota.ru/make-them-suffer/widower-chords.htm
Привет, Гость.
Предлагаем пройти революционный курс по гитаре.
Подарок от PrimaNota.Ru, забирай!