PrimaNota.ru - самый крупный в мире бесплатный архив песенных текстов, аккордов, табулатур и нот


Make Them Suffer - Blood Moon - таба, видео

Регистрация Запомнить меня
Войти через:  Facebook Google Twitter Vk Yandex Mail.ru

Make Them Suffer - Blood Moon - таба, видео

Печатать
Просмотров: 59
This is off Make Them Suffer's latest release Old Souls. A much more
metalcore sounding record as opposed to their first releases. Hopefully this isn't too confusing.
Apply riff where they need to go. Try to navigate my riff order (good luck).

Drop A

Intro Riff
  Riff A        Riff B           Riff C
A----1^2^1-0-|-----0-0---0-0---|---1-0---1-0-|
E------------|-3-3-------------|-4-----5-----|
A--4---------|---------5-----5-|-------------|
D------------|-----------------|-------------|
f#-----------|-----------------|-------------|
b------------|-----------------|-------------|

Riff D                   Riff E
A--0-0-0-0---0-0-0-0-0-0-|------0-0-3.5--3.5-3.5--3.5-3.5-|
E--0-0-0-0---0-0-0-0-0-0-|-3-3----------------------------|
A------------------------|--------------------------------|
D------------------------|--------------------------------|
f#-----------------------|--------------------------------|
b------------------------|--------------------------------|

Verse riff 1
Riff Aa                                                      Riff Ab
A------1-1-1-1-----1-1-1-1-----1-1-----1-1-1-1-----1-1-1-1-|-0-0--0--0-0-|
E----------------------------------------------------------|-0-0--0--0-0-|
A--4-4---------4-4---------4-4-----4-4---------4-4---------|-------------|
D----------------------------------------------------------|-------------|
f#---------------------------------------------------------|-------------|
b----------------------------------------------------------|-------------|

Riff A                                   Riff B
A------1-1-1-1-----1-1-1-1-----1-1-----|-0-0-0-0--0-0--0-0--0-0-0-0-|
E--------------------------------------|-0-0-0-0--0-0--0-0--0-0-0-0-|
A--4-4---------4-4---------4-4-----4-4-|----------------------------|
D--------------------------------------|----------------------------|
f#-------------------------------------|----------------------------|
b--------------------------------------|----------------------------|

Riff C
A------1-1-1-1-----1-1-1-1-----1-1-----1-1-1-1-----1-1-1-1-----1-1-1-1-|
E----------------------------------------------------------------------|
A--4-4---------4-4---------4-4-----4-4---------4-4---------4-4---------|
D----------------------------------------------------------------------|
f#---------------------------------------------------------------------|
b----------------------------------------------------------------------|


Listen to chugging patterns. The pattern changes after you play through the below riffs once each.
Chug ending 1                  chug ending 2
A--1-1-1-1--0-0--1-1---------|---------1-1---------1-1---------|
E--------------------4-4-4-4-|-4-4-4-4-----4-4-4-4-----4-4-4-4-|
A----------------------------|---------------------------------|
D----------------------------|---------------------------------|
f#---------------------------|---------------------------------|
b----------------------------|---------------------------------|

Atmosphere
Riff 1                               Riff 2
A--0-0-0-0-0-0-0-0-0-0-0-0-0-0-0-0-|-------------------------|
E----------------------------------|-------------------------|
A----------------------------------|-------------------------|
D----------------------------------|-------------------------|
f#---------------------------------|-13-13-13-13-13-13-13-13-|
b----------------------------------|-10-10-10-10-10-10-10-10-|

Riff 3
A--0(x24)-8(x8)-5(x16)-7(x6)-10-(x6)-------| numbers in brackets are approximate values
E------------------------------------------|
A------------------------------------------|
D------------------------------------------|
f#-----------------------------------------|
b------------------------------------------|

Groovy Riff
Riff A                                       Riff B
A------1-0----------1-0--2.8-2.8--2.8-2.8-|-2.8-2.8--2.8-2.8--0-1-|
E--3--------3---3-------------------------|-------------------0-1-|
A----4--------4---4-----------------------|-----------------------|
D-----------------------------------------|-----------------------|
f#----------------------------------------|-----------------------|
b-----------------------------------------|-----------------------|


Outro Atmosphere
A--------------------------------------|
E-----------(gradual bend and release)-|
A--------------------------------------|
D--------------7^8^7-------------------|
f#-------13----------------------------|
b--10----------------------------------|

Djent (bend on first fret and then opens)(also a pinchy on the third fret D)

Order of riffs
Intro Riff (A B A C A B A D A B A C A E A D) I think

Verse Riff 1 (Aa Ab A B C A B C

Chugging (Ending 1 Ending 2 x 2)

Atmosphere (Riff 1 Riff 2 Riff 1 (x1.5) Riff 2 Riff 3)

Groovy Riff (A B A B A chug ending 2 A (not sure about ending of groovy riff)

Chugging (Ending 1 Ending 2)

Atmosphere (Riff 3 x2 chug ending 2)

Outro Atmosphere (x4)

Djent riff
Добавлено: 16.03.2016
Другие материалы по этой песне:

Страница создана 16.03.2016
http://primanota.ru/make-them-suffer/blood-moon-chords.htm
Привет, Гость.
Предлагаем пройти революционный курс по гитаре.
Подарок от PrimaNota.Ru, забирай!