PrimaNota.ru - самый крупный в мире бесплатный архив песенных текстов, аккордов, табулатур и нот


Make Me Famous - Stage On Fire - таба, видео

Регистрация Запомнить меня
Войти через:  Facebook Google Twitter Vk Yandex Mail.ru

Make Me Famous - Stage On Fire - таба, видео

Печатать
Просмотров: 285
Tuning: Drop D (DADGBE)
Song: Stage On Fire
Band: Make Me Famous
Album: It's Now Or Never
 
 VERSE:
E|-------------------|
B|-------------------|
G|-------------------|
D|-0----Volume Swell-|
A|-0-----------------|
D|-0-----------------|

E|--------------------------------------------------------|
B|--------------------------------------------------------|
G|--------------------------------------------------------|
D|-00-0--0-00-00-333-3-3-333-338-888-8-8888-55-5-5-555-55-|(x2)
A|-00-0--0-00-00-333-3-3-333-338-888-8-8888-55-5-5-555-55-|
D|-00-0--0-00-00-333-3-3-333-338-888-8-8888-55-5-5-555-55-|
                                                                            
E|--------------------------------------------------------|
B|--------------------------------------------------------|
G|--------------------------------------------------------|
D|-0-------------3-------------8-----------55-5-5-555-5-5-|
A|-0-------------3-------------8-----------55-5-5-555-5-5-|
D|-0-------------3-------------8-----------55-5-5-555-5-5-|
                                                      
E|--------------------------------------------------------|
B|--------------------------------------------------------|
G|--------------------------------------------------------|
D|-00-0--0-00-00-333-3-3-333-338-888-8-8888-55-5--5-5-5-5-|
A|-00-0--0-00-00-333-3-3-333-338-888-8-8888-55-5--5-5-5-5-|
D|-00-0--0-00-00-333-3-3-333-338-888-8-8888-55-5--5-5-5-5-|
  
  PRE-CHORUS:                                                           
E|--------------------------------------------------------|
B|--------------------------------------------------------|
G|--------------------------------------------------------|
D|-0-------------3-------------8-----------5--------------|(x2)
A|-0-------------3-------------8-----------5--------------|
D|-0-------------3-------------8-----------5--------------|

  CHORUS:  (pattern might be wrong)
E|---------------------------------------------------|
B|---------------------------------------------------|
G|---------------------------------------------------|
D|-0000000000-00--33--3333-33--88-888888-55--5555-55-|(x2)
A|-0000000000-00--33--3333-33--88-888888-55--5555-55-|
D|-0000000000-00--33--3333-33--88-888888-55--5555-55-|

E|-----------------------------|
B|-----------------------------|
G|-----------------------------|
D|-0------3------8------5------|(x2)
A|-0-(x8)-3-(x8)-8-(x8)-5-(x8)-|
D|-0------3------8------5------|

  VERSE 2:
E|-----------------------------------------------------|
B|-----------------------------------------------------|
G|-----------------------------------------------------|
D|-----------------------------------------------------|
A|-----------------------------------------------------|
D|-00-0--0-00-00-000-0-0-000-000-000-0-0000-00-0-0-000-|
   ** *  * ** ** *** * * *** *** *** * **** ** * * *** 
E|------------------------------------------------------|
B|------------------------------------------------------|
G|------------------------------------------------------|
D|------------------------------------------------------|
A|------------------------------------------------------|
D|-00-0--0-00-00-000-0-0-000-000-000-0-0000-00-0-0-0000-|
   ** *  * ** ** *** * * *** *** *** * **** ** * * ****
E|-----------------------------------------------------|
B|-----------------------------------------------------|
G|-----------------------------------------------------|
D|-00-0--0-00-00-000-0-0-000-000-000-0-0000-00-0-0-000-|
A|-00-0--0-00-00-000-0-0-000-000-000-0-0000-00-0-0-000-|
D|-11-1--1-11-11-111-1-1-111-111-111-1-1111-11-1-1-111-|
   ** *  * ** ** *** * * *** *** *** * **** ** * * ***
E|------------------------------------------------------|
B|------------------------------------------------------|
G|------------------------------------------------------|
D|------------------------------------------------------|
A|------------------------------------------------------|
D|-00-0--0-00-00-000-0-0-000-000-000-0-0000-00-0-0-0000-|
   ** *  * ** ** *** * * *** *** *** * **** ** * * ****
E|-------------------|
B|-------------------|
G|-------------------|
D|---0---------------|
A|---0---------------|
D|-0-0---------------|
   *




Добавлено: 02.12.2013
Вам также может быть интересно:
Другие материалы по этой песне:

Страница создана 25.06.2013
http://primanota.ru/make-me-famous/stage-on-fire-chords.htm
Привет, Гость.
Предлагаем пройти революционный курс по гитаре.
Подарок от PrimaNota.Ru, забирай!