PrimaNota.ru - самый крупный в мире бесплатный архив песенных текстов, аккордов, табулатур и нот


Make Me Famous - Ifyuocnaraedtihsmkaemeasnadwich - таба, видео

Регистрация Запомнить меня
Войти через:  Facebook Google Twitter Vk Yandex Mail.ru

Make Me Famous - Ifyuocnaraedtihsmkaemeasnadwich - таба, видео

Печатать
Просмотров: 193
Begging is all rythm

    Pre Chorus
D|-----------------|
A|-----------------|
F|-----------------|
C|-----2-----------|
G|-----2-----------|
C|-----2-----------|

               Chorus
              Theses are the chords used in the chorus strumming is *8 for the first two 
chords and 5 is * 16 and play 5 14 times then 3 twice in the second part

D|----------------------------------------------------------------------------|
A|----------------------------------------------------------------------------|
F|----------------------------------------------------------------------------|
C|-7--10--5-----7--10--5--3---------------------------------------------------|
G|-7--10--5-----7--10--5--3---------------------------------------------------|
C|-7--10--5-----7--10--5--3---------------------------------------------------|


D|-----------------|
A|-----------------|
F|-----------------|
C|-----2-----------|
G|-----2-----------|
C|-----2-----------|



Verse 2



D|------------------------------------------------------------------------|
A|------------------------------------------------------------------------|
F|--------------------------------------- ----5-7-------------------------|
C|---------------------79-----------------5 7-----------------------------|
G|-0-0-0-0-000-------79----------000--------------------------------------|
C|-0-0-0-0-000-7-10--------0 0 0 000--5-8---------------------------------|





D|-------------------------------------------------------------------|
A|---------------------------------------------5 7-------------------|
F|--------------------------------------- 5 7------------------------|
C|---------------------79--------------------------------------------|
G|-0-0-0-0-000-------79-----0-0-0-000--------------------------------|
C|-0-0-0-0--000-7-10--------0-0-0-000-5-8----------------------------|




In the middle of the night


D|----------------------------------------------------------------------|
A|----------------------------------------------------------------------|
F|----------------------------------------------------------------------|
C|-2---5---3------------------------------------------------------------|
G|-2---5---3------------------------------------------------------------|
C|-2---5---3------------------------------------------------------------|




  Chorus
              Theses are the chords used in the chorus strumming is *8 for the first two 
chords and 5 is * 16 and play 5 14 times then 3 twice in the second part

D|----------------------------------------------------------------------------|
A|----------------------------------------------------------------------------|
F|----------------------------------------------------------------------------|
C|-7--10--5-----7--10--5--3---------------------------------------------------|
G|-7--10--5-----7--10--5--3---------------------------------------------------|
C|-7--10--5-----7--10--5--3---------------------------------------------------|


Sold
Play this twice then
D|-----------------|
A|-----------------|
F|-----------------|
C|-----2-----------|
G|-----2-----------|
C|-----2-----------|




Dreams are alright
As Megan's fox is tight

D|-----------------------------------------------------------------|
A|-----------------------------------------------------------------|
F|-----------------------------------------------------------------|
C|--2----4----6----7-----------------------------------------------|
G|--2----4----6----7-----------------------------------------------|
C|--2----4----6----7-----------------------------------------------|


Guitar Break


Rest is just breakdowns that are simple
Добавлено: 21.07.2013
Другие материалы по этой песне:
  • Аккорды и текст

Страница создана 21.07.2013
http://primanota.ru/make-me-famous/ifyuocnaraedtihsmkaemeasnadwich-chords.htm
Привет, Гость.
Предлагаем пройти революционный курс по гитаре.
Подарок от PrimaNota.Ru, забирай!