PrimaNota.ru - самый крупный в мире бесплатный архив песенных текстов, аккордов, табулатур и нот


Make Do And Mend - Drown In It - аккорды и текст, видео

Регистрация Запомнить меня
Войти через:  Facebook Google Twitter Vk Yandex Mail.ru

Make Do And Mend - Drown In It - аккорды и текст, видео

Печатать
Просмотров: 76
Drown In It
Make Do And Mend
Make do And Mend
Drown In It
Everything You Ever Loved
2012 Rise Records
Submitted by: jeremyunderground41@yahoo.com

Key: D

Tuning: Standard EADGBe

Chords used:
Bm - x24432
A -  x02220
G -  320033
Em - 022000
D -  xx0232
Bb - x13331
B -  x24442


Intro:
                          Bm
e|----------------------------------------------------|
B|----------------------------------------------------|
G|-----2-----------------2---------------2------------|
D|-------4--0-2-4-2--------4--0-2-0--------4--0-2-4-2-|
A|-2-2---------------2-2-------------2-2--------------|
E|----------------------------------------------------|

         A
e|-----------------|
B|-----------------|
G|-----------------|
D|---0---4---0---0-|
A|-0---4---0---4---|
E|-----------------|

                          Bm
e|----------------------------------------------------|
B|----------------------------------------------------|
G|-----2-----------------2---------------2------------|
D|-------4--0-2-4-2--------4--0-2-0--------4--0-2-4-2-|
A|-2-2---------------2-2-------------2-2--------------|
E|----------------------------------------------------|

         A
e|-----------------|
B|-----------------|
G|-----------------|
D|---2---2---2---2-|
A|-0---4---0---4---|
E|-----------------|


Verse 1:
Bm
Place your bets
They've been dealing
you a fixed deck
A
over and over
Bm
Came and went
Are the days when your
            A
heart can't break if
             G
your back is turned
                A
Simple sad and slow
Hum the first bar
              Em  D A
and leave me alone
          Em  D A
Leave me alone


Chorus 1:
           G
If there's more to
          A
this life than my next
   G            A
mistake I wanna know


Post Chorus:
                          Bm
e|----------------------------------------------------|
B|----------------------------------------------------|
G|-----2-----------------2---------------2------------|
D|-------4--0-2-4-2--------4--0-2-0--------4--0-2-4-2-|
A|-2-2---------------2-2-------------2-2--------------|
E|----------------------------------------------------|

         A
e|-----------------|
B|-----------------|
G|-----------------|
D|---2---2---2---2-|
A|-0---4---0---4---|
E|-----------------|


Verse 2:
Bm
Face your fears
They've been chasing you
              A
down over the course
of the past few years
Bm
Never clear of
the bad breaks
             A
and fuck-ups that
                     G
you've grown used to hear
                 A
Anxious, silent space
Turn the lights out
              Em  D A
and leave me alone
          Em  D A
Leave me alone


Chorus 2:
           G
If there's more to
          A
this life than my next
   G             A
mistake I need to know


Interlude: Bm--D-Bm--A-Bm--D-A-- x4, Bb--


Outro:
Bm
  I can't shake it
           A
But I'm so tired failing
Bm
  Slowly sinking
But there's no
A                B(hold)
sense in swimming
Добавлено: 16.08.2013
Другие материалы по этой песне:
  • Аккорды и текст

Страница создана 16.08.2013
http://primanota.ru/make-do-and-mend/drown-in-it-chords.htm
Привет, Гость.
Предлагаем пройти революционный курс по гитаре.
Подарок от PrimaNota.Ru, забирай!