PrimaNota.ru - самый крупный в мире бесплатный архив песенных текстов, аккордов, табулатур и нот


Make Do And Mend - Begging For The Sun To Go Down - таба, видео

Регистрация Запомнить меня
Войти через:  Facebook Google Twitter Vk Yandex Mail.ru

Make Do And Mend - Begging For The Sun To Go Down - таба, видео

Печатать
Просмотров: 71
Song: Begging for the sun to go down 
Artist: Make Do And Mend
Album: Don't be long
Year: 2015
Tuning: 1/2 step down 

Epic Masterpiece by Make Do And Mend. Tabs figured out by ear. Sound 100% correct to me. Feel free to correct. 

4x
----------------------------------------------------------------------------------------------------------------
----------------------------------------------------------------------------------------------------------------
----------------------------------------------------------------------------------------------------------------
----------------------------------------------------------------------------------------------------------------
---13---13---13---13----13~----8----8----8---8-----8~---10---10----10---10-----10~---10---10----10---10-----10~-
15---15---15---15---15~-----10---10---10---10---10~---11----11----11---11---11~----11----11----11---11---11~----


4x
----------------------------------------------------------------------------------------------------------------
----------------------------------------------------------------------------------------------------------------
----------------------------------------------------------------------------------------------------------------
----------------------------------------------------------------------------------------------------------------
--10---10---10---10----10~----13---13---13---13----13~----12---12---12---12----12~----10---10---10---10----10~--
11---11---11---11---11~-----15---15---15---15---15~-----13---13---13---13---13~-----11---11---11---11---11~-----


4x
----------------------------------------------------------------------------------------------------------------
----------------------------------------------------------------------------------------------------------------
----------------------------------------------------------------------------------------------------------------
----------------------------------------------------------------------------------------------------------------
---13---13---13---13----13~----8----8----8---8-----8~---10---10----10---10-----10~---10---10----10---10-----10~-
15---15---15---15---15~-----10---10---10---10---10~---11----11----11---11---11~----11----11----11---11---11~----


2x
--------------------------------------------------------------------------------------------------------------
--------------------------------------------------------------------------------------------------------------
-8~------12~-------10~----8~-------------------------------------------------------------------------------
-8~------12~-------10~----8~-------------------------------------------------------------------------------
-6~------10~-------8~-----8~-------------------------------------------------------------------------------
-6~------10~-------8~-----8~-------------------------------------------------------------------------------


4x (listen to the song for the exact strumming pattern)
--------------------------------------------------------------------------------------
--------------------------------------------------------------------------------------
-8-8-8-8-8-8-8-8--12-12-12-12-12-12-12-12--10-10-10-10-10-10-10-10--8-8-8-8-8-8-8-8---
-8-8-8-8-8-8-8-8--12-12-12-12-12-12-12-12--10-10-10-10-10-10-10-10--8-8-8-8-8-8-8-8---
-6-6-6-6-6-6-6-6--10-10-10-10-10-10-10-10--8--8--8--8--8--8--8--8---6-6-6-6-6-6-6-6----
-6-6-6-6-6-6-6-6--10-10-10-10-10-10-10-10--8--8--8--8--8--8--8--8---6-6-6-6-6-6-6-6----


1x
--------------------------------------------------------------------------------------------------------------
-------------------------------------------------------------------------------------------------------------
--------------------------------------------------------------------------------------------------------------
--------------------------------------------------------------------------------------------------------------
--10---10---10---10----10~---13---13---13---13----13~----12---12---12---12----12~----10---10---10---10----10~--
11---11---11---11---11~----15---15---15---15---15~-----13---13---13---13---13~-----11---11---11---11---11~----


1x
---------------------------------------------------------------------------------------------------------------
---------------------------------------------------------------------------------------------------------------
---------------------------------------------------------------------------------------------------------------
---------------------------------------------------------------------------------------------------------------
--10---10---10---10----10~---13---13---13---13----13~----12---12---12---12----12~----12---12---12---12----12~--
11---11---11---11---11~----15---15---15---15---15~-----13---13---13---13---13~-----13---13---13---13---13~----


Добавлено: 04.11.2015
Другие материалы по этой песне:
  • Аккорды и текст

Страница создана 04.11.2015
http://primanota.ru/make-do-and-mend/begging-for-sun-to-go-down-chords.htm
Привет, Гость.
Предлагаем пройти революционный курс по гитаре.
Подарок от PrimaNota.Ru, забирай!