PrimaNota.ru - самый крупный в мире бесплатный архив песенных текстов, аккордов, табулатур и нот


Major League - Subject To Change - таба, видео

Регистрация Запомнить меня
Войти через:  Facebook Google Twitter Vk Yandex Mail.ru

Major League - Subject To Change - таба, видео

Печатать
Просмотров: 68
-------------------------------------------------------------------------------
                             SUBJECT TO CHANGE - Major League
-------------------------------------------------------------------------------
Tabbed by: mkunz16
E-mail: mkunz16@jcu.edu

**Tabbed by ear, send any corrections!**

Tuning: Drop C#

____________

 INTRO
____________
                                                   1st     2nd      3rd      4th 
                                                  repeat  repeat   repeat   repeat
                                                 ______________________________________
                                                 |      |       |         |        |x4||
eb|----------------------------------------------|------|-------|---------|--------|--||
Bb|----------------------------------------------|------|-------|---------|--------|--||
F#|----------------------------------------------|------|-------|---------|--------|-o||
C#|----------------4h5---------------------------|-5--7-|-5-0-7-|-5-0-7-0-|-5-0-7--|-o||
D#|----5h7---2h5---------5/7---7/9-----5h7---2h5-|-5--7-|-5-0-7-|-5-0-7-0-|-5-0-7--|--||
C#|00------0-----0-----0-----0------00-----0-----|-5--7-|-5-0-7-|-5-0-7-0-|-5-0-7--|--||
   ..      .     .     .     .      ..     .  

____________

 PRE-VERSE
____________
    "I enjoy the company lately..."        x2
eb|---------------------------------------|--||------------------------|
Bb|---------------------------------------|--||------------------------|
F#|---------------------------------------|-o||------------------------|
C#|0--------0-----------0--------9---5--7-|-o||------------------------|
D#|0----00--0----00-00--0----00--9---5--7-|--||---////PICK SLIDE////---|
C#|0----00--0----00-00--0----00--9---5--7-|--||------------------------|
        ..       .. ..       ..

________

 VERSE
________
   "I've been barking up the same damn tree..."       x2
eb|--------------------------------------------------|--||
Bb|--------------------------------------------------|--||
F#|-7------------------------------------------------|-o||
C#|-7-(STRUM)----9------------7------------5---------|-o||
D#|-5------------9-(STRUM)----7-(STRUM)----5-(STRUM)-|--||
C#|--------------9------------7------------5---------|--||

_____________

 PRE-CHORUS
_____________
eb|-------------------------------------|
Bb|-------------------------------------|
F#|-77777-7-77777-9-12121212-11-99999---|
C#|-xxxxx-x-xxxxx-x-x-x-x-x--x--xxxxx---|
D#|-55555-5-55555-7-10101010-9--77777---|
C#|-------------------------------------|

_________

 CHORUS
_________
                                           "upsides
   "I don't know where..."                  b-side"               x2
eb|---------------------------------------------------------------|--||
Bb|---------------------------------------------------------------|--||
F#|---------------------------------------------------------------|-o||
C#|-0--000--0--000-4-5--555--55-555-557-77-99----77----5----------|-o||
D#|-0--000--0--000-4-5--555--55-555-557-77-99----77----5-(STRUM)--|--||
C#|-0--000--0--000-4-5--555--55-555-557-77-99----77----5----------|--||
       ..      ..       ..      ..  ..  ..         

_________

 BRIDGE
_________                  x2
eb|-----------------------|--||
Bb|-7---5---8---7---7-----|--||
F#|--7---7---7---7---7-7--|-o||
C#|---7---7---7---7---7---|-o||
D#|-----------------------|--||
C#|-----------------------|--||

___________

 PRE-OUTRO
___________

 **PLAY BRIDGE 4 TIMES THROUGH**

________

 OUTRO
________                              x2                                    x2
eb|----------------------------------|--||---------------------------------|--||
Bb|----------------------------------|--||---------------------------------|--||
F#|---7/9---4/7---11/12---7/9---9/11-|-o||---------------------------------|-o||
C#|---x/x---x/x----x/x----x/x---x/x--|-o||---------------4/5---------------|-o||
D#|---5/7---2/5----9/10---5/7---7/9--|--||---5/7---2/5---------5/7---7/9---|--||
C#|-0-----0-----0-------0-----0------|--||-0-----0-----0-----0-----0-------|--||
_________

 ENDING
_________
eb|-----------|
Bb|-----------|
F#|-----------|
C#|-55-55555--|
D#|-55-55555--|
C#|-55-55555--|
       . .


************************************
| .   palm mute
| /   slide up
| \   slide down
| h   hammer-on
| p   pull-off
| ~   vibrato
| +   harmonic
| x   Mute note
| b   Bend
| pb  Pre-bend
| br  Bend release
| pbr Pre-bend release
| brb Bend release bend

  |--||
  |--||
  |-o||   <-- indicates repeat
  |-o||
  |--||
  |--||

************************************
Добавлено: 09.08.2015
Другие материалы по этой песне:
  • Аккорды и текст

Страница создана 09.08.2015
http://primanota.ru/major-league/subject-to-change-chords.htm
Привет, Гость.
Предлагаем пройти революционный курс по гитаре.
Подарок от PrimaNota.Ru, забирай!