PrimaNota.ru - самый крупный в мире бесплатный архив песенных текстов, аккордов, табулатур и нот


Major Kong - Iddqd - бас-таба, видео

Регистрация Запомнить меня
Войти через:  Facebook Google Twitter Vk Yandex Mail.ru

Major Kong - Iddqd - бас-таба, видео

Печатать
Просмотров: 82
Tuning: C Standard

Legend:
b - bend
r - release
br - bend then release
v - vibrato
h - hammer-on
p - pulloff
/ - slide up
\ - slide down

 intro
|--------------------|--------------------|
|--------------------|--------------------|
|--------------------|--------------------|
|-12b-p0-------------|-12b-p0-------7-6-5-|

 main riff
|---------------------|------------------------|
|-5v-----5---5v-------|-5v-----5---5v----------|
|----7----------7---6-|----7----------7--------|
|------0----------0---|------0----------0-7-6-5|

 bridge (also backing for solo, add some improvisation on C minor pentatonic)
|------------------------------------------------------------------------|
|------------------------------------------------------------------------|
|------------------------------------------------------------------------|
|-/8--8-8-\5/10--10-10-\5/12--10-12-10-12--10-12-10-12--10-12-10-12-10\5-|

 bridge part 2
|----------------------------------------------------------|
|----------------------------------------------------------|
|----------------------------------------------------------|
|-/8--8-8-\5/10--10-10-\5/7--5-7-5-7--5-7-5-7--5-7-5-7-6-5-|

 fill 1
|------------------------|
|------------------------|
|------------11-------11-|
|0------5/12-----7/12----|


 wah part (improvise a little bit, add some licks based on this scheme)
                       x3                                           x1
|------------------------|--------------------------------13--------13|
|----21p18-18------21-18-|----18br----18br----18br-----14--------14---|
|-19-----------18--------|-17------16------15-------12--------14------|
|------------------------|--------------------------------------------|

 heavy riff
        x3                           x1
|---------|---------------------------|
|---------|---------------------------|
|---------|-----------------11-----11-|
|-0--11b--|--10--9--8--5/12----7/12---|

 heavy riff part 2
                 x3                                    x1
|------------------|-------------------------------------|
|------------------|-------------------------------------|
|------------------|-----11br--11br--11br------11-----11-|
|-0-7\4-4-/11-7-4--|--10-----9-----8------5/12----7/12---|

 wah outro
 just improvise over C major triad (C, E, G) with some additional notes from C major or 
minor scale.

 play with lots of fuzz, thin and loose strings, and bend some notes whenever you feel 
it. tons of feedback is a must!

 http://majorkong.bandcamp.com/
Добавлено: 02.09.2013
Другие материалы по этой песне:
  • Аккорды и текст

Страница создана 02.09.2013
http://primanota.ru/major-kong/iddqd-chords.htm
Привет, Гость.
Предлагаем пройти революционный курс по гитаре.
Подарок от PrimaNota.Ru, забирай!