PrimaNota.ru - самый крупный в мире бесплатный архив песенных текстов, аккордов, табулатур и нот


Majesty - Silent War - таба, видео

Регистрация Запомнить меня
Войти через:  Facebook Google Twitter Vk Yandex Mail.ru

Majesty - Silent War - таба, видео

Печатать
Просмотров: 156
Love this song but there were no tabs anywhere so I had to make one. Really fun 
song to play. This 
is both guitar parts, not just one, including the solo. Have fun with it.

Guitar 1 (Lead): Bottom
Guitar 2 (Rhythm): Top


|-------------|-------------------------------------------------------------|
|-------------|-------------------------------------------------------------|
|-------------|-------------------------------------------------------------|
|-------------|-------------------------------------------------------------|
|--0---1---3--|--0~---------------------------------------------------------|
|--0---1---3--|--0~---------------------------------------------------------|
|
|
|-------------|-------------------------------------------------------------|
|-------------|-------------------------------------------------------------|
|-------------|--------------------------------------------4tr-3tr----------|
|-------------|--------------------------------3tr---2tr-----------2tr-3tr--|
|-------------|--5tr---2tr-3tr-6tr-5tr-3tr-2tr------------------------------|
|-------------|-------------------------------------------------------------|


|-------------------------------------------------------------|
|-------------------------------------------------------------|
|-------------------------------------------------------------|
|-------------------------------------------------------------|
|--00001-------------------------00001-------1-------0--------|
|--00001-------------------------00001-------1-------0--------|
|  ....                          ....        
|
|-------------------------------------------------------------|
|-------------------------------------------------------------|
|--------------------------------------------4tr-3tr----------|
|--------------------------------3tr---2tr-----------2tr-3tr--|
|--5tr---2tr-3tr-6tr-5tr-3tr-2tr------------------------------|
|-------------------------------------------------------------|


|-------------------------------------------------------------|
|-------------------------------------------------------------|
|-------------------------------------------------------------|---|
|-------------------------------------------------------------|   |
|--000-0-0-0-0---0000-----0------000-0-0-0-0---0000-----0-----|   |
|--000-0-0-0-0---0000-----0------000-0-0-0-0---0000-----0-----|   |
|  ... . . . .   ....     .      ... . . . .   ....     .         |-- x2
|                                                                 |
|-------------------------------------------------------------|   |
|-------------------------------------------------------------|   |
|--------------------------------------------4tr-3tr----------|   |
|--------------------------------3tr---2tr-----------2tr-3tr--|---|
|--5tr---2tr-3tr-6tr-5tr-3tr-2tr------------------------------|
|-------------------------------------------------------------|


|-------------------------------------------------------------|   Both
|-------------------------------------------------------------|  Guitars
|-------------------------------------------------------------|
|-------------------------------------------------------------|-- x2
|--000-0-0-0-0---0000-----0------000-0-0-0-0---0000-----0-----|
|--000-0-0-0-0---0000-----0------000-0-0-0-0---0000-----0-----|
   ... . . . .   ....     .      ... . . . .   ....     .

|-------------------------------------------------------------|   Both
|-------------------------------------------------------------|  Guitars
|-------------------------------------------------------------|
|-------------------------------------------------------------|
|--111-1-1-1-1---1111-----1------111-1-1-1-1---1111-----1-----|
|--111-1-1-1-1---1111-----1------111-1-1-1-1---1111-----1-----|
   ... . . . .   ....     .      ... . . . .   ....     .

|----------------------------------------------------------------|   Both
|----------------------------------------------------------------|  Guitars
|----------------------------------------------------------------|
|----------------------------------------------------------------|
|--111-1-1-1-1---1111-----1------111-1-1-1-1---1111-----------0--|
|--111-1-1-1-1---1111-----1------111-1-1-1-1---1111-----1^----0--|
   ... . . . .   ....     .      ... . . . .   ....

|-----------------------------------|------------------------------------|
|-----------------------------------|------------------------------------|
|-----------------------------------|------------------------------------|
|-----------------------------------|------------------------------------|
|--5h8-----7h10-----10---7---8---5--|------------------------------------|
|------0-0------0-0----0---0---0----|------------------------------------|
|      . .      . .    .   .   .
|
|-----------------------------------|------------------------------------|
|-----------------------------------|------------------------------------|
|-----------------------------------|------------------------------------|
|-----------------------------------|------------------------------------|
|-----------------------------------|--5h8-----7h10-----10---7---12---8--|
|-----------------------------------|------0-0------0-0----0---0----0----|
                                           . .      . .    .   .    .

|------------------------------------------------------------------------|
|------------------------------------------------------------------------|
|------------------------------------------------------------------------|
|------------------------------------------------------------------------|
|--5h8-----7h10-----10---7---8---5---5h8-----7h10-----8tr--5tr-7tr--4tr--|
|------0-0------0-0----0---0---0---------0-0------0-0--------------------|
|      . .      . .    .   .   .         . .      . .
|
|------------------------------------------------------------------------|
|------------------------------------------------------------------------|
|------------------------------------------------------------------------|
|------------------------------------------------------------------------|
|--5h8-----7h10-----10---7---8---5---5h8-----7h10-----12tr-8tr-10tr-7tr--|
|------0-0------0-0----0---0---0---------0-0------0-0--------------------|
       . .      . .    .   .   .         . .      . .

|----------------------------------------------------------------------|
|----------------------------------------------------------------------|
|----------------------------------------------------------------------|
|----------------------------------------------------------------------|
|--5h8-----7h10-----10---7---8---5---5h8-----7h10-----10---7---12---8--|
|------0-0------0-0----0---0---0---------0-0------0-0----0---0----0----|
|      . .      . .    .   .   .         . .      . .    .   .    .
|
|----------------------------------------------------------------------|
|----------------------------------------------------------------------|
|----------------------------------------------------------------------|
|----------------------------------------------------------------------|
|--5h8-----7h10-----10---7---8---5---5h8-----7h10-----10---7---12---8--|
|------0-0------0-0----0---0---0---------0-0------0-0----0---0----0----|
       . .      . .    .   .   .         . .      . .    .   .    .

|------------------------------------------------------------------------|
|------------------------------------------------------------------------|
|------------------------------------------------------------------------|
|------------------------------------------------------------------------|
|--5h8-----7h10-----10---7---8---5---5h8-----7h10-----8tr--5tr-7tr--4tr--|
|------0-0------0-0----0---0---0---------0-0------0-0--------------------|
|      . .      . .    .   .   .         . .      . .
|
|------------------------------------------------------------------------|
|------------------------------------------------------------------------|
|------------------------------------------------------------------------|
|------------------------------------------------------------------------|
|--5h8-----7h10-----10---7---8---5---5h8-----7h10-----12tr-8tr-10tr-7tr--|
|------0-0------0-0----0---0---0---------0-0------0-0--------------------|
       . .      . .    .   .   .         . .      . .

|----------------------------------------------------------------------|
|----------------------------------------------------------------------|
|----------------------------------------------------------------------|
|----------------------------------------------------------------------|
|--5h8-----7h10-----10---7---8---5---5h8-----7h10-----10---7---12---8--|
|------0-0------0-0----0---0---0---------0-0------0-0----0---0----0----|
|      . .      . .    .   .   .         . .      . .    .   .    .
|
|------------------------------------------------------------------------------|
|------------------------------------------------------------------------------|
|------------------------------------------------------------------------------|
|------------------------------------------------------------------------------|
|--8h12-----10h13-----13---10---12---8---8h12-----10h13-----13---10---15---12--|
|-------0-0-------0-0----0----0----0----------0-0-------0-0----0----0----0-----|
        . .       . .    .    .    .          . .       . .    .    .    .

|------------------------------------------------------------------------|
|------------------------------------------------------------------------|
|------------------------------------------------------------------------|
|------------------------------------------------------------------------|
|--5h8-----7h10-----10---7---8---5---5h8-----7h10-----8tr--5tr-7tr--4tr--|
|------0-0------0-0----0---0---0---------0-0------0-0--------------------|
|      . .      . .    .   .   .         . .      . .
|
|------------------------------------------------------------------------------|
|------------------------------------------------------------------------------|
|------------------------------------------------------------------------------|
|------------------------------------------------------------------------------|
|--8h12-----10h13-----13---10---12---8---8h12-----10h13-----12tr-8tr-10tr-7tr--|
|-------0-0-------0-0----0----0----0----------0-0-------0-0--------------------|
        . .       . .    .    .    .          . .       . .

|-----------------------------------------------------------------------|
|-----------------------------------------------------------------------|
|-----------------------------------------------------------------------|--|
|-----------------------------------------------------------------------|  |
|------------------------------------5h8-----------5h8-4---4---4---4----|  |
|--------------------------------------------------------0---0---0---0--|  |
|                                                        .   .   .   .     |-- x2
|                                                                          |
|-----------------------------------------------------------------------|  |
|-----------------------------------------------------------------------|  |
|-----------------------------------------------------------------------|  |
|-----------------------------------------------------------------------|--|
|--8h12---------8h12-----------------8h12---------8h12-7---7---7---7----|
|-------0-0-0-0------0-0-0-0-0-0-0-0------0-0-0-0--------0---0---0---0--|
        . . . .      . . . . . . . .      . . . .        .   .   .   .

|-----------------------------------------------------------------------|
|-----------------------------------------------------------------------|
|-----------------------------------------------------------------------|
|-----------------------------------------------------------------------|
|--5h8----------5h8------------------5h8-----------5h8-4---4---4---4----|
|-------0-0-0-0------0-0-0-0-0-0-0-0------0-0-0-0--------0---0---0---0--|
|       . . . .      . . . . . . . .      . . . .        .   .   .   .
|
|-----------------------------------------------------------------------|
|-----------------------------------------------------------------------|
|-----------------------------------------------------------------------|
|-----------------------------------------------------------------------|
|--8h12---------8h12-----------------8h12---------8h12-7---7---7---7----|
|-------0-0-0-0------0-0-0-0-0-0-0-0------0-0-0-0--------0---0---0---0--|
        . . . .      . . . . . . . .      . . . .        .   .   .   .

|----------------------------------------------------------------5h10p5--|
|--------------------------------------------------------------6---------|
|------------------------------------------------------------7-----------|
|----------------------------------------------------------7-------------|
|--5h8----------5h8------------------5h8-----------5h8-5h8---------------|
|-------0-0-0-0------0-0-0-0-0-0-0-0------0-0-0-0------------------------|
|       . . . .      . . . . . . . .      . . . .
|
|---------------------------------------------------------------------12h17p12--|
|------------------------------------------------------------------15-----------|
|---------------------------------------------------------------14--------------|
|------------------------------------------------------------15-----------------|
|--8h12---------8h12-----------------8h12---------8h12-12h17--------------------|
|-------0-0-0-0------0-0-0-0-0-0-0-0------0-0-0-0-------------------------------|
        . . . .      . . . . . . . .      . . . .

|-------------------------------------------------------------------|   Both
|-------------------------------------------------------------------|  Guitars
|-------------------------------------------------------------------|
|-------------------------------------------------------------------|-- x2
|--1-1---1-1-1---1-1-1-1-1-1-1-1-1-1-1---1-1-1---1-1-1-1-1-1-1-1-1--|
|--1-1---1-1-1---1-1-1-1-1-1-1-1-1-1-1---1-1-1---1-1-1-1-1-1-1-1-1--|
   . .   . . .   . . . . . . . . . . .   . . .   . . . . . . . . .

|-------------------------------------------------------------------|
|-------------------------------------------------------------------|
|-------------------------------------------------------------------|
|-------------------------------------------------------------------|
|------8---7---5---4---5---7---5-------8---7---5---4tr-5tr-7tr-5tr--|
|--0-0---0---0---0---0---0---0-----0-0---0---0----------------------|
|  . .   .   .   .   .   .   .     . .   .   .
|
|-------------------------------------------------------------------|
|-------------------------------------------------------------------|
|-------------------------------------------------------------------|
|-------------------------------------------------------------------|
|-------------------------------------------------------------------|
|-------------------------------------------------------------------|


|-------------------------------------------------------------------|
|-------------------------------------------------------------------|
|-------------------------------------------------------------------|
|-------------------------------------------------------------------|
|-------------------------------------------------------------------|
|-------------------------------------------------------------------|
|
|
|-------------------------------------------------------------------|
|-------------------------------------------------------------------|
|-------------------------------------------------------------------|
|-------------------------------------------------------------------|
|------8---7---5---4---5---7---5-------8---7---5---8tr-7tr-8tr-4tr--|
|--0-0---0---0---0---0---0---0-----0-0---0---0----------------------|
   . .   .   .   .   .   .   .     . .   .   .

|-------------------------------------------------------------------|
|-------------------------------------------------------------------|
|-------------------------------------------------------------------|--|
|-------------------------------------------------------------------|  |   Both
|------8---7---5---4---5---7---5-------8---7---5---4tr-5tr-7tr-5tr--|  |  Guitars
|--0-0---0---0---0---0---0---0-----0-0---0---0----------------------|  |
|  . .   .   .   .   .   .   .     . .   .   .                         |-- x3
                                                                       |
|-------------------------------------------------------------------|  |
|-------------------------------------------------------------------|  |
|-------------------------------------------------------------------|  |
|-------------------------------------------------------------------|--|
|------8---7---5---4---5---7---5-------8---7---5---8tr-7tr-8tr-4tr--|
|--0-0---0---0---0---0---0---0-----0-0---0---0----------------------|
   . .   .   .   .   .   .   .     . .   .   .


|------------------------------|   Both
|------------------------------|  Guitars
|------------------------------|
|------------------------------|-- x2
|--3~------------2~----5~------|
|--3~------------2~----5~------|

|------------------------------|
|------------------------------|
|------------------------------|--|
|------------------------------|  |
|--3~------------2~----5~------|  |
|--3~------------2~----5~------|  |
                                  |-- x2
                                  |
|------------------------------|  |
|------------------------------|  |
|------------------------------|  |
|------------------------------|--|
|--33-33---333---22-2--555-55--|
|--33-33---333---22-2--555-55--|
   .. ..   ...   .. .  ... ..

|------------------------------|   Both
|------------------------------|  Guitars
|------------------------------|
|------------------------------|-- x4
|--00-00---000---00-0--000-00--|
|--00-00---000---00-0--000-00--|
   .. ..   ...   .. .  ... ..

|------|------|
|------|------|
|------|------|
|------|------|
|--00--|------|
|--00--|------|
|  ..
|
|------|------|
|------|------|
|------|------|
|------|------|
|------|--00--|
|------|--00--|
          ..

|-----------------------------------------------------------------|   Both
|-----------------------------------------------------------------|  Guitars
|-----------------------------------------------------------------|
|--------------------------------------------------8--------------|-- x2
|------5---8---4p0-----4---7---4p0-----5---8---5-------5---4---5--|
|--0-0---0---0-----0-0---0---0-----0-0---0---0---0---0---0---0----|
   . .   .   .     . .   .   .     . .   .   .   .   .   .   .

|-----------------------------------------------------------------|
|-----------------------------------------------------------------|
|-----------------------------------------------------------------|------|
|--------------------------------------------------8--------------|      |
|------5---8---4p0-----4---7---4p0-----5---8---5-------5---4---5--|      |
|--0-0---0---0-----0-0---0---0-----0-0---0---0---0---0---0---0----|      |
|  . .   .   .     . .   .   .     . .   .   .   .   .   .   .           |-- x2
|                                                                        |
|---------------------------------------------------------------------|  |
|---------------------------------------------------------------------|  |
|---------------------------------------------------------------------|  |
|-----------------------------------------------------12--------------|--|
|------8---12---7p0-----7---10---7p0-----8---12---8--------8---7---8--|
|--0-0---0----0-----0-0---0----0-----0-0---0----0---0----0---0---0----|
   . .   .    .     . .   .    .     . .   .    .   .    .   .   .

|-------------------------------------------------------------------------|
|-------------------------------------------------------------------------|
|-------------------------------------------------------------------------|
|-------------------------------------------------------------------------|
|-------------------------------------------------8tr---------------------|
|--8tr---------12tr---11tr------------7tr---------------12tr--------------|
|
|
|-------------------------------------------------------------------------|
|-------------------------------------------------------------------------|
|-------------------------------------------------10tr--------------------|
|--8tr---------12tr---11tr------------------------------12tr--------------|
|-------------------------------------12tr--------------------------------|
|-------------------------------------------------------------------------|

|------------------------------------------------------------------------|
|------------------------------------------------------------------------|
|------------------------------------------------------------------------|
|------------------------------------------------------------------------|
|-------------------------------------------------------------------8tr--|
|--8tr---------12tr---11tr------------------------------7tr--------------|
|
|
|----------------------------------------8h12p8--------------------------|
|--11----------15-----14--------------10--------10-----------------------|
|-----------------------------------9--------------9---------------------|
|--------------------------------10------------------10-------------15---|
|-----------------------------12------------------------12---------------|
|------------------------------------------------------------------------|


|--------------------------------------------------------------------|
|--------------------------------------------------------------------|
|--------------------------------------------------------------------|
|--------------------------------------------------------------------|
|--------------------------------------------------------------------|
|--12tr--------------------------------------------8tr---------12tr--|
|
|
|----------------------12--17--12--------------12--17^---------------|
|------------------15--------------15------15------------------------|
|--------------14----------------------14----------------------------|
|----------15--------------------------------------------------------|
|--12--17------------------------------------------------------------|
|--------------------------------------------------------------------|


|-------------------------------------------------------------------------------------|
|-------------------------------------------------------------------------------------|
|-------------------------------------------------------------------------------------|
|-------------------------------------------------------------------------------------|
|-------------------------------------------------------------------------------8tr---|
|--11tr------------------------------------------7tr----------------------------------|
|
|
|--14-11-10---------------------------------------------------8h12--------------7h11--|
|-----------13-11-10---------------------------------------10-----------------9-------|
|--------------------12-10-------------------------------9------------------8---------|
|--------------------------14-12-11-------------------10------------------9-----------|
|-----------------------------------13-12-10-8-7-8h12----------------7h11-------------|
|-------------------------------------------------------------------------------------|


|--------------------------------------------------|
|--------------------------------------------------|
|--------------------------------------------------|
|--------------------------------------------------|
|--------------------------------------------------|
|--12tr--------------------------------------------|
|
|
|-----------------10h14---------------13-17-22-17--|
|--------------12------------------15--------------|
|-----------11------------------14-----------------|
|--------12------------------15--------------------|
|--10h14------------------17-----------------------|
|--------------------------------------------------|


|-----------------------------------------------------------------------|
|-----------------------------------------------------------------------|
|-----------------------------------------------------------------------|--|
|-----------------------------------------------------------------------|  |
|------------------------------------5h8-----------5h8-4---4---4---4----|  |
|--------------------------------------------------------0---0---0---0--|  |
|                                                        .   .   .   .     |-- x2
|                                                                          |
|-----------------------------------------------------------------------|  |
|-----------------------------------------------------------------------|  |
|-----------------------------------------------------------------------|  |
|-----------------------------------------------------------------------|--|
|--8h12---------8h12-----------------8h12---------8h12-7---7---7---7----|
|-------0-0-0-0------0-0-0-0-0-0-0-0------0-0-0-0--------0---0---0---0--|
        . . . .      . . . . . . . .      . . . .        .   .   .   .

|-----------------------------------------------------------------------|
|-----------------------------------------------------------------------|
|-----------------------------------------------------------------------|
|-----------------------------------------------------------------------|
|--5h8----------5h8------------------5h8-----------5h8-4---4---4---4----|
|-------0-0-0-0------0-0-0-0-0-0-0-0------0-0-0-0--------0---0---0---0--|
|       . . . .      . . . . . . . .      . . . .        .   .   .   .
|
|-----------------------------------------------------------------------|
|-----------------------------------------------------------------------|
|-----------------------------------------------------------------------|
|-----------------------------------------------------------------------|
|--8h12---------8h12-----------------8h12---------8h12-7---7---7---7----|
|-------0-0-0-0------0-0-0-0-0-0-0-0------0-0-0-0--------0---0---0---0--|
        . . . .      . . . . . . . .      . . . .        .   .   .   .

|--------------------------------------------------------|
|--------------------------------------------------------|
|--------------------------------------------------------|
|--------------------------------------------------------|
|--5h8----------5h8------------------5h8----------5h8----|
|-------0-0-0-0------0-0-0-0-0-0-0-0------0-0-0-0--------|
|       . . . .      . . . . . . . .      . . . .
|
|---------------------------------------------------------|
|---------------------------------------------------------|
|---------------------------------------------------------|
|---------------------------------------------------------|
|--8h12---------8h12-----------------8h12---------8h12----|
|-------0-0-0-0------0-0-0-0-0-0-0-0------0-0-0-0---------|
        . . . .      . . . . . . . .      . . . .

|-------------------------------------------------------------------|   Both
|-------------------------------------------------------------------|  Guitars
|-------------------------------------------------------------------|
|-------------------------------------------------------------------|-- x2
|--0-0---0-0-0---0-0-0-0-0-0-0-0-0-0-0---0-0-0---0-0-0-0-0-0-0-0-0--|
|--1-1---1-1-1---1-1-1-1-1-1-1-1-1-1-1---1-1-1---1-1-1-1-1-1-1-1-1--|
   . .   . . .   . . . . . . . . . . .   . . .   . . . . . . . . .

|-------------------------------------------------------------------|   One
|-------------------------------------------------------------------|  Guitar
|-------------------------------------------------------------------|
|-------------------------------------------------------------------|-- x2
|--2-2---2-2-2---2-2-2-2-2-2-2-2-2-2-2---2-2-2---2-2-2-2-2-2-2-2-2--|
|--3-3---3-3-3---3-3-3-3-3-3-3-3-3-3-3---3-3-3---3-3-3-3-3-3-3-3-3--|
   . .   . . .   . . . . . . . . . . .   . . .   . . . . . . . . .

|-------------------------------------------------------------------|   Both
|-------------------------------------------------------------------|  Guitars
|-------------------------------------------------------------------|
|-------------------------------------------------------------------|-- x2
|--0-0---0-0-0---0-0-0-0-0-0-0-0-0-0-0---0-0-0---0-0-0-0-0-0-0-0-0--|
|--1-1---1-1-1---1-1-1-1-1-1-1-1-1-1-1---1-1-1---1-1-1-1-1-1-1-1-1--|
   . .   . . .   . . . . . . . . . . .   . . .   . . . . . . . . .

|------------------------------------------------------------------------|
|------------------------------------------------------------------------|
|------------------------------------------------------------------------|--|
|------------------------------------------------------------------------|  |   Both
|-------------------------------------------------8tr--------------------|  |  Guitars
|--8tr---------12tr-11tr------------7tr---------------12tr---------------|  |
|                                                                           |-- x4
|                                                                           |
|------------------------------------------------------------------------|  |
|------------------------------------------------------------------------|  |
|------------------------------------------------------------------------|  |
|------------------------------------------------------------------------|--|
|--1--1--1--11--11--1--11--1--1--11-11--1--1--11--11--1--11--1--1--11-1--|
|--1--1--1--11--11--1--11--1--1--11-11--1--1--11--11--1--11--1--1--11-1--|
   .  .  .  ..  ..  .  ..  .  .  .. ..  .  .  ..  ..  .  ..  .  .  .. .

|------------------------------------------------------------------------|
|------------------------------------------------------------------------|
|------------------------------------------------------------------------|
|------------------------------------------------------------------------|-- x2
|-------------------------------------------------8tr--------------------|
|--8tr---------12tr-11tr------------7tr---------------12tr---------------|
Добавлено: 23.04.2012
Вам также может быть интересно:
Другие материалы по этой песне:

Страница создана 23.04.2012
http://primanota.ru/majesty/silent-war-chords.htm
Привет, Гость.
Предлагаем пройти революционный курс по гитаре.
Подарок от PrimaNota.Ru, забирай!