PrimaNota.ru - самый крупный в мире бесплатный архив песенных текстов, аккордов, табулатур и нот


Maj Karma - Salama - таба, видео

Регистрация Запомнить меня
Войти через:  Facebook Google Twitter Vk Yandex Mail.ru

Maj Karma - Salama - таба, видео

Печатать
Просмотров: 147
Maj Karma - Salama

PM = Demppaus
~ = Vibrato

                        
Alku 6x
      
E|-----------------------------------|
B|-----------------------------------|
G|-----------------10-10-9-10--10-10-|
D|-7-7-777-10-10-7-10-10-9-10--10-10-|
A|-7-7-777-10-10-7-8--8--7-8---8--8--|
D|-7-7-777-10-10-7-------------------|

Säkeistö 4x

  Tällä tavalla soitat kaikki alla mainitut soinnut.
E|----------------------|
B|----------------------|
G|----------------------|
D|-14-14-14-14-14-14-14-|
A|-14-14-14-14-14-14-14-|
D|-12-12-12-12-12-12-12-|
   PM    PM PM    PM

Muut soinnut
                    Lopetus
E|---|----|---|---|--------------|
B|---|----|---|---|--------------|
G|---|----|---|---|--------------|
D|-9-|-10-|-7-|-8-|-8-8-8--1-1-1-|
A|-9-|-10-|-7-|-8-|-8-8-8--1-1-1-|
D|-7-|-8--|-5-|-6-|-8-8-8--1-1-1-|
                  PM--|  PM--|

Kertosäkeen alku
      Osa 1           2x       Osa 2        2x  (Soitetaan 2 kertaa kokonaisuudessaan)
E|----------------------|----------------------|
B|----------------------|----------------------|
G|-10-10-10-10-10-10-10-|-9--9--9--9--9--9--9--|
D|-10-10-10-10-10-10-10-|-9--9--9--9--9--9--9--|
A|-8--8--8--8--8--8--8--|-7--7--7--7--7--7--7--|
D|----------------------|----------------------|
  PM PM    PM     PM     PM PM    PM    PM 


Kertosäe 8x
                                      
E|-----------------------------------|
B|-----------------------------------|
G|-----------------10-10-9-10--10-10-|
D|-7-7-777-10-10-7-10-10-9-10--10-10-|
A|-7-7-777-10-10-7-8--8--7-8---8--8--|
D|-7-7-777-10-10-7-------------------|
                                   
Säkeistö 2x

Kertosäkeen alku 2x

Kertosäe 8x

C-Osa
E|---------------------------------------------------------|
B|---------------------------------------------------------|
G|---------------------------------------10-10-10-10-10-10-|
D|-7-7-10-10-4-4-3--3-3-3-3-3--7-7-10-10-10-10-10-10-10-10-|
A|-7-7-10-10-4-4-3--3-3-3-3-3--7-7-10-10-8--8--8--8--8--8--|
D|-7-7-10-10-4-4-3--3-3-3-3-3--7-7-10-10-------------------|
                                            PM

Tästä en ole niinkään varma    4x
E|-------------------------------|
B|-------------------------------|
G|-------------------------------|
D|-7--10--4--3-3--7-7-10-10-10~~-|
A|-7--10--4--3-3--7-7-10-10-10~~-|
D|-7--10--4--3-3--7-7-10-10------|

Kertosäe 16x


Tabin selvitti Tommi Heinisaari
Добавлено: 22.07.2012
Другие материалы по этой песне:
  • Аккорды и текст

Страница создана 22.07.2012
http://primanota.ru/maj-karma/salama-chords.htm
Привет, Гость.
Предлагаем пройти революционный курс по гитаре.
Подарок от PrimaNota.Ru, забирай!