PrimaNota.ru - самый крупный в мире бесплатный архив песенных текстов, аккордов, табулатур и нот


Maj Karma - Attentaatti - таба, видео

Регистрация Запомнить меня
Войти через:  Facebook Google Twitter Vk Yandex Mail.ru

Maj Karma - Attentaatti - таба, видео

Печатать
Просмотров: 98
majkarma.com
I know it's not perfect... Synch it yourself.


  SE ON!...
E ---------------------------------------------|       
B ---------------------------------------------|       
G 7----10----7----10---------------------------|       
D 7----10----7----10---------------------------|       
A 5----8-----5----8-----8----3----8----3-------|       
D ----------------------8----3----8----3-------| x4

D ---------------------------------------------|
A 2--------------------------------------------|
D 2--------------------------------------------|

  Jokainen...
E ---------------------------------------------|       
B ---------------------------------------------|       
G 5----6----8----6-----------------------------|       
D 3----6----8----6-----------------------------|       
A 3----4----6----4-----------------------------|       
D 3--------------------------------------------| x4

E ---------------------------------------------|       
B ---------------------------------------------|       
G 7----10----7----10---------------------------|       
D 7----10----7----10---------------------------|       
A 5----8-----5----8-----8----3----8----3-------|       
D ----------------------8----3----8----3-------|


  ON!...
E ---------------------------------------------|       
B ---------------------------------------------|       
G -----------------10-----------------10-------|       
D -----------------10-----------------10-------|       
A -----------------8------------------8--------|       
D 0-0-0-0-0-0-0-0-----0-0-0-0-0-0-0-0----------|
                                                > x2
E ---------------------------------------------|       
B ---------------------------------------------|       
G ---------------------------------------------|       
D ---------------------------------------------|       
A 8----3----8----3-----------------------------|       
D 8----3----8----3-----------------------------|

D ---------------------------------------------|
A 2--------------------------------------------|
D 2--------------------------------------------|

  Jokainen...
E ---------------------------------------------|       
B ---------------------------------------------|       
G 5----6----8----6-----------------------------|       
D 3----6----8----6-----------------------------|       
A 3----4----6----4-----------------------------|       
D 3--------------------------------------------| x4


  Haista...
E ---------------------------------------------|       
B ---------------------------------------------|       
G ---------------------------------------------|       
D ---------------------------------------------|       
A ---------------------------------------------|       
D 0-2-2-0-2-2-0-2-2-0-2-2-5-4-3-2--------------| x8


G -----10--------------------------------------|
D -----10--------------------------------------|
A -----8---------------------------------------|
D 0--------------------------------------------|

E ---------------------------------------------|       
B ---------------------------------------------|       
G -----------------10--------------------------|       
D -----------------10--------------------------|       
A -----------------8---------------------------|       
D 0-0-0-0-0-0-0-0------------------------------|
                                                
E ---------------------------------------------|       
B ---------------------------------------------|       
G ---------------------------------------------|       
D ---------------------------------------------|       
A 8----3----8----3-----------------------------|       
D 8----3----8----3-----------------------------|

E ---------------------------------------------|       
B ---------------------------------------------|       
G -----------------10--------------------------|       
D -----------------10--------------------------|       
A -----------------8---------------------------|       
D 0-0-0-0-0-0-0-0-----0------------------------|
Добавлено: 13.04.2012
Другие материалы по этой песне:
  • Аккорды и текст

Страница создана 13.04.2012
http://primanota.ru/maj-karma/attentaatti-chords.htm
Привет, Гость.
Предлагаем пройти революционный курс по гитаре.
Подарок от PrimaNota.Ru, забирай!