PrimaNota.ru - самый крупный в мире бесплатный архив песенных текстов, аккордов, табулатур и нот


Maintenance Man - Monkey Biscuits - таба, видео

Регистрация Запомнить меня
Войти через:  Facebook Google Twitter Vk Yandex Mail.ru

Maintenance Man - Monkey Biscuits - таба, видео

Печатать
Просмотров: 93
Уроки эстрадного вокала в Санкт-Петербурге
		   Author/Artist: Maintenance Man
Title: Monkey Biscuits
Album: Split 7" w/Two Against One
Transcribed by: new skool justin
Email: mm.punk@juno.com

------------------------------------------------------------------------------
------------------------------------------------------------------------------
----------------------------------------------------------------8-8-7-7-6-6---
----------------------------------------------------------------8-8-7-7-6-6---
--------------------5-5-3-3-4-4-----5-5-3-3-4-4-----5-5-3-3-4-4-6-6-5-5-4-4---
----------------3-3-------------3-3-------------3-3---------------------------
 "monkey biscuits"                                                            

------------------------------------------------------------------------------
------------------------------------------------------------------------------
-----------------------------------------------------8-8-7-7-6-6-5-5-0\-------
-5-5-------------------------------------------------8-8-7-7-6-6-5-5-2\-------
-5-5-----5-5-3-3-4-4-----5-5-3-3-4-4-----5-5-3-3-4-4-6-6-5-5-4-4-3-3-2\-------
-3-3-3-3-------------3-3-------------3-3--------------------------------------
                                                                              

------------------------------------------------------------------------------
------------------------------------------------------------------------------
------------------------------------------------------------------------------
-------------------------------------------------------------7-7-6-6-7-7-6-6--
-------------------------------------------------------------7-7-6-6-7-7-6-6--
-------------------------------------------------------------5-5-4-4-5-5-4-4--
 monkey biscuits in my throat monkey biscuits  make me choke spit them out on 

------------------------------------------------------------------------------
------------------------------------------------------------------------------
------------------------------------------------------------------------------
-7-7-6-6-7-7-6-6-7-7-6-6-7-7-6-6-7-7-6-6--------------------------------------
-7-7-6-6-7-7-6-6-7-7-6-6-7-7-6-6-7-7-6-6--------------------------------------
-5-5-4-4-5-5-4-4-5-5-4-4-5-5-4-4-5-5-4-4--------------------------------------
 the ground love to hear that CHUNKY sound (play same stuff again til words)  

------------------------------------------------------------------------------
------------------------------------------------------------------------------
------------------------------------------------------------------------------
-0\---------------------------------------------------------------------------
-2\-----------------------------------------------------7-7-8-8-7-7-8-8-7-7---
-2\-----------------------------------------------------5-5-6-6-5-5-6-6-5-5---
 God fills everything fill me up so i can spit them out i've got to tell      

------------------------------------------------------------------------------
------------------------------------------------------------------------------
------------------------------------------------------------------------------
------------------------------------------------------------------------------
-8-8-7-7-8-8-7-7-8-8-7-7-8-8-7-7-8-8-7-7-----5-5-3-3-4-4-----5-5-3-3-4-4------
-6-6-5-5-6-6-5-5-6-6-5-5-6-6-5-5-6-6-5-5-3-3-------------3-3-------------3-3--
 them who You are I've got to get it out                                      

------------------------------------------------------------------------------
------------------------------------------------------------------------------
-------------8-8-7-7-6-6-5-5--------------------------------------------------
-------------8-8-7-7-6-6-5-5--------------------------------------------------
-5-5-3-3-4-4-6-6-5-5-4-4-3-3----5-5-3-3-4-4-----5-5-3-3-4-4-----5-5-3-3-4-4---
----------------------------3-3-------------3-3-------------3-3---------------
                                                                              

------------------------------------------------------------------------------
------------------------------------------------------------------------------
---------------------5-5--5-5--4-4--4-4----------------------5-5--------------
-8-8-9-9-10-10-11-11-5-5--5-5--5-5--5-5---------2--2-3-3-4-4-5-5-5-5-2-2-3-3--
-6-6-7-7-8--8--9--9--3-3--3-3--5-5--5-5---------2--2-3-3-4-4-3-3-5-5-2-2-3-3--
-------------------------------3-3--3-3---------0--0-1-1-2-2-----3-3-0-0-1-1--
                      i will not eat them in the rain                         

------------------------------------------------------------------------------
------------------------------------------------------------------------------
--------------------------------5-5-------------------------------------------
--------------------------------5-5-5-5-2-2-3-3-4-4-4-4-----------------------
--------------------------------3-3-5-5-2-2-3-3-4-4-4-4-----------------------
------------------------------------3-3-0-0-1-1-2-2-2-2-----------------------
 i will not eat them on a train                        i will not eat them    

------------------------------------------------------------------------------
------------------------------------------------------------------------------
------------------------------------------------------------------------------
------------------------------------------------------------------------------
------------------------------------------------------------------------------
------------------------------------------------------------------------------
 in a box i will not eat them with a fo-ox i am full in Christ Christ is      

------------------------------------------------------------------------------
------------------------------------------------------------------------------
------------------------------------------------------------------------------
------------------------------------------------------------------------------
------------------------------------------------------------------------------
------------------------------------------------------------------------------
 full in me (play the same riffs after "rain" and "train") that's all, folks  

     
Добавлено: 07.10.2013
Другие материалы по этой песне:
  • Аккорды и текст

Страница создана 07.10.2013
http://primanota.ru/maintenance-man/monkey-biscuits-chords.htm
Привет, Гость.
Предлагаем пройти революционный курс по гитаре.
Подарок от PrimaNota.Ru, забирай!