PrimaNota.ru - самый крупный в мире бесплатный архив песенных текстов, аккордов, табулатур и нот


Maiden Lane - Half A Year - таба, видео

Регистрация Запомнить меня
Войти через:  Facebook Google Twitter Vk Yandex Mail.ru

Maiden Lane - Half A Year - таба, видео

Печатать
Просмотров: 124
Уроки эстрадного вокала в Санкт-Петербурге
Song Title: Half a Year
        by: Maiden Lane
capo on 4th fret

Chords:(Relative to capo)
    G    G/B   Em7  Cadd9   D    Am   D/F#m (tap)
e|--3--|--2--|--3--|--3--|--2--|--0--|--3--|--x--|
B|--3--|--3--|--3--|--3--|--3--|--1--|--3--|--x--|
G|--0--|--0--|--0--|--0--|--2--|--2--|--2--|--x--|
D|--0--|--0--|--2--|--2--|--0--|--2--|--0--|--x--|
A|--2--|--2--|--2--|--3--|--x--|--0--|--0--|--x--|
E|--3--|--x--|--0--|--x--|--x--|--x--|--2--|--x--|



Intro:
     Gx2  (tap)     Bmx2               Em7x2
e|---3------x--3-|--2-----x--2/3----|--3-----x----------------|
B|-------3--x----|-----3--x------3--|-----3--x----------------|
G|-------0--x----|-----0--x---------|-----0--x--0-------------|
D|----------x----|--------x---------|--------x-----2--2/4--4--|
A|--(2)-----x----|--2-----x---------|--------x--3-----3/5--5--|
E|---3------x--3-|--------x---------|--0-----x----------------|


Verses:
     Gx2  (tap)     Bmx2               Em7x2    Cx2
e|---3------x--3-|--2-----x--2/3----|--3-----x--2-----x--|
B|-------3--x----|-----3--x------3--|-----3--x-----3--x--|
G|-------0--x----|-----0--x---------|-----0--x-----0--x--| 
D|----------x----|--------x---------|--------x--------x--|  
A|--(2)-----x----|--2-----x---------|--------x--3-----x--|
E|---3------x--3-|--------x---------|--0-----x--------x--|


Chorus:

     Gx2  (tap)     Dx2               Em7x2    Cadd9x2
e|---3------x--3-|--2-----x--2/3----|--3-----x--3-----x--|
B|-------3--x----|-----3--x------3--|-----3--x-----3--x--|
G|-------0--x----|-----2--x---------|-----0--x-----0--x--| 
D|----------x----|--0-----x---------|--------x--------x--| (x2) 
A|--(2)-----x----|--------x---------|--------x--3-----x--|
E|---3------x--3-|--------x---------|--0-----x--------x--|

    D        Bm  Cadd9
e|--2--2---2--2--0----|
B|--3--3---3--3--3----|
G|--2--2---2--4--0----|
D|--0--0---0----------|
A|------------2--3----|
E|--------------------|

     Gx2  (tap)     Bmx2               Em7x2    Cx2
e|---3------x--3-|--2-----x--2/3----|--3-----x--3-----x--|
B|-------3--x----|-----3--x------3--|-----3--x-----3--x--|
G|-------0--x----|-----4--x---------|-----0--x-----0--x--| 
D|----------x----|--------x---------|--------x--------x--|  
A|--(2)-----x----|--2-----x---------|--------x--3-----x--|
E|---3------x--3-|--------x---------|--0-----x--------x--|


G                Bm
In my arms i'll give you peace
Em7              Cadd9
In my arms i'll give you hurt
G              Bm
Asking you shall receive
Em7             Cadd9
In my arms you will lose nothing
Cadd9
You have my word, 
Cadd9
I can guarantee

Chorus:
 G                             D
Give me your heart and you'll have no fear
 Em7                     Cadd9
Give me your heart to persevere
 G                     D
Give me your heart to win your price
 Em7                    Cadd9                       
Give me your heart i'll give you my eyes
 D                 Bm  Cadd9                   G 
Give me your heart so you'll be calm like the wind
Bm-Em7-Cadd9
oh


G                 Bm
In my hands i'll keep you clean
Em7              Cadd9
In my hands my love will show
G                 Bm
In my hands i'll keep you company
Em7                            Cadd9
When no one's around i'll be listening
Cadd9
You have my word,
Cadd9
I can guarantee

Chorus:
 G                             D
Give me your heart and you'll have no fear
 Em7                     Cadd9
Give me your heart to persevere
 G                     D
Give me your heart to win your price
 Em7                    Cadd9                       
Give me your heart i'll give you my eyes
 D                 Bm  Cadd9                   G 
Give me your heart so you'll be calm like the wind
G
oh

Bridge:
                Am
And it's been half a year
     D
not much has change
                G         D/F#m
But there's a feeling of hope 
     Em7
and home will be soon
     Am                 D
Even if you're miles away
          G            D/F#m         Em7
I would drive for the world just to reach you
         Am                     D
Cause i know that my heart is yours
                    G
And your heart is mine


 G                      D/F#m
This is one words will never show
 Em7                     Cadd9
You are the one that i love the most
 G                      D/F#m
Picture perfect girl ...
 Em7                         Cadd9
and always and forever will only be with you
          G                     D/F#m
And i'll give you my heart so i have no fear
      Em7                   Cadd9
i'll give you my heart to persevere
          G                         D/F#m     Em7-Cadd9
And i'll give you my heart so i'll have no fear
 D                 Bm Cadd9
Give me your heart so I
            D                Bm    Cadd9
Won't you give me your heart so you
        D                  Bm  Cadd9
Let's give them our hearts so we'll
                    G-Bm-Em7-Cadd9
be calm like the wind oh



G                Bm
In my arms i'll give you peace
Em7              Cadd9
In my arms i'll give you hurt


:::::::::::::::::::::::::::::::::::::::::::::::::::::::::::::::::::::
i'm not sure with the lyrics 
and of the chords but i use these chords to play it :)

please rate and/or comment :D
::by: amiappreciated ::::::::::::::::::::::::::::::::::::::::::::::::
Добавлено: 16.11.2013
Вам также может быть интересно:
Другие материалы по этой песне:
  • Аккорды и текст

Страница создана 14.11.2013
http://primanota.ru/maiden-lane/half-a-year-chords.htm
Привет, Гость.
Предлагаем пройти революционный курс по гитаре.
Подарок от PrimaNota.Ru, забирай!