PrimaNota.ru - самый крупный в мире бесплатный архив песенных текстов, аккордов, табулатур и нот


Maia Tim - O Caminho Do Bem - бас-таба, видео

Регистрация Запомнить меня
Войти через:  Facebook Google Twitter Vk Yandex Mail.ru

Maia Tim - O Caminho Do Bem - бас-таба, видео

Печатать
Просмотров: 98
(intro 4x)
|-7--5---------------|----------------------|
|------7-5-----------|----------------------|
|----------8---5-----|--0------3----5-------|
|--------------------|----------------------|

(break 2x)
|-------------------|----------------------|
|-------------3-----|--------------3-------|
|0-------3-5--------|----------3-5---5-----|
|----3-5------------|------3-5-------------|

(intro 4x)

Eb7M                         Dm              ¬¹         2x
|----------------|----------|----------------|-----------|
|------8/10\8----|----------|------7---------|-----------|
|--6-------------|--6\4-----|-5--------55----|-3-5-------|
|----------------|------6---|----------------|------5----|
¬²
|-------|
|-5\----|
|-------|
|-------|
Добавлено: 22.06.2013
Другие материалы по этой песне:
  • Аккорды и текст

Страница создана 22.06.2013
http://primanota.ru/maia-tim/o-caminho-do-bem-chords.htm
Привет, Гость.
Предлагаем пройти революционный курс по гитаре.
Подарок от PrimaNota.Ru, забирай!