PrimaNota.ru - самый крупный в мире бесплатный архив песенных текстов, аккордов, табулатур и нот


Магомаев Юрий - Улетай - аккорды и текст, видео

Регистрация Запомнить меня
Войти через:  Facebook Google Twitter Vk Yandex Mail.ru

Магомаев Юрий - Улетай - аккорды и текст, видео

Печатать
Просмотров: 108
Улетай
Магомаев Юрий
Улетай.
e----3---------------------------------
b-------6-6---4-3-4--6---------------
g--------------------------------------
d--5-----------------------------------

e--4-4-3-3----------------------------
b----------6-6--4-4--3-3--4---------
g--------------------------------------
d--------------------------------------

e--------------------------------------
b--3-4-3-----------3-4-3-------------
g---------5-----5----------------------
d------------6------------6------------

e-----------1-->3----------------------
b---------4------3-3-4-----------------
g-----5-4--------------5---------------
d--3-5---------------------------------    Cm

Fm G Cm Ab
Жаль, что между нами снова осень, очень жаль
Fm G Cm
Вдаль, тебя уносит осень белой птицей вдаль
C7
Стирая все надежды 
Fm G Cm Ab
Мне останется лишь только по тебе скучать 
Fm Ab G G7
Ждать, как прежде до весны, когда вернешься ты

Припев:
Cm Fm G
Улетай, но вновь весной вернуться обещай
Cm Ab
И никогда не говори, прощай 
Fm
Буду ждать.....
Ab G G7
И безутешно верить в чудо
Cm Fm G
Рай, где жду тебя, прошу, не забывай
Cm Ab
Я так люблю тебя, ты прилетай 
Fm
Прилетай.....
G G7
Ко мне весенним утром

Сны, что снились нам с тобой на разных полюсах
Улетят, и годы лучшие нам не вернуть назад
И так порой тревожно мне
Сумеешь ли назад дорогу не забыть
Там, ну, сколько можно перелетной птицей быть

Припев.
Добавлено: 02.12.2015
Другие материалы по этой песне:
  • Аккорды и текст

Страница создана 02.12.2015
http://primanota.ru/magomaev-yurii/uletai-chords.htm
Привет, Гость.
Предлагаем пройти революционный курс по гитаре.
Подарок от PrimaNota.Ru, забирай!