PrimaNota.ru - самый крупный в мире бесплатный архив песенных текстов, аккордов, табулатур и нот


Mago De Oz - Volaverunt Opus 666 - текст песни, таба, видео

Регистрация Запомнить меня
Войти через:  Facebook Google Twitter Vk Yandex Mail.ru

Mago De Oz - Volaverunt Opus 666 - текст песни, таба, видео

Печатать
Просмотров: 154
ESTO ES EL INTRO(0:00)              (0:12)IMPROVISAR
e|---------------------------------|-------------------------|
B|---------------------------------|-------------------------|
G|---------------------------------|-------------------------|
D|-0-2-3-0-7-5-3-2-3-0--0-2-3-0-6-7|-5-...-¿-----------------|
A|---------------------------------|-------------------------|
E|---------------------------------|-------------------------|
   (0:17)                           (0:30)
e|---------------------------------|-------------------------|
B|---------------------------------|-------------------------|
G|---------------------------------|-------------------------|
D|-0-2-3-0-7-5-3-2-3-0--0-2-3-0-6-7|-0-2-3-0-7-IMPROVISAR----|
A|---------------------------------|-------------------------|
E|---------------------------------|-------------------------|

      (0:41)TECLADO          (0:49)
*AL REPETIRSE LA CUARTA VEZ EL FINAL SE CAMBIA POR ESTO

                                     X4
e|--------------------|---------------|---------------------|
B|--------------------|---------------|---------------------|
G|*-------------------|-------2-0-3-2*|---------------------|
D|*-0-2-3-2----2-0----|-0-2-3--------*|-5-3-2---3-2-0-------|
A|---------3------0-0-|---------------|-------3-------------|
E|--------------------|---------------|---------------------|
(1:44)ESCUCHA LA CANCIÓN PARA QUE VEAS LOS TIEMPOS

e|-----------------------------------------------------------|
B|-----------------------------------------------------------|
G|-*--------------------------5-3-2--------------------------|
D|-*-0--0-2-3-0-0-2-3-0-0-2-3--------5-3-2-0-----------------|
A|-----------------------------------------------------------|
E|-----------------------------------------------------------|

¡¡¡=REPETIR  HASTA EL MINUTO 2:08


                                  X3   (2:02)
e|---------------------------------|------2------------------|
B|---------------------------------|---3---------------------|
G|-------------------------------*-|-0-----------------------|
D|-0-0-2-3-0-0-2-3-0-0-2-3-7-8---*-|-------------------------|
A|---------------------------------|------¡¡¡----------------|
E|---------------------------------|-------------------------|
(2:08)
e|--------------------------6-4-3----------------------------|
B|-1-1-3-4-1-1-3-4--1-1-3-4-------6-4-3-1--------------------|
G|-*---------------------------------------------------------|
D|-*---------------------------------------------------------|
A|-----------------------------------------------------------|
E|-----------------------------------------------------------|
                                X2
e|-------------------------3-4-----|-------------------------|
B|-1-1-3-4-1-1-3-4-1-1-3-4---------|-------------------------|
G|-------------------------------*-|-------------------------|
D|-------------------------------*-|-------------------------|
A|---------------------------------|-------------------------|
E|---------------------------------|-------------------------|
  (3:03)                          X2
e|----------------------------------|------------------------|
B|----------------------------------|------------------------|
G|----------------------------------|------------------------|
D|----------------------------------|------------------------|
A|-5-----5------------5------------7|------------------------|
E|-3-XXXX3X-X-X-X-X-X-3-XX-X-X-X-X-5|------------------------|


                                          X2
e|--------------------------------------|--------------------|
B|--------------------------------------|--------------------|
G|--------------------------------------|--------------------|
D|--------------------------------------|--------------------|
A|-5-----5------------5-----7-5-7-5-----|--------------------|
E|-3-XXXX3X-X-X-X-X-X-3-XX-X5-3-5-3-----|--------------------|
FINAL
e|--------------------------------------|--------------------|
B|--------------------------------------|--------------------|
G|--------------------------------------|--------------------|
D|-0-2-3-5-7-8---0-2-3-2---0~-----------|--------------------|
A|-----------------------3~-------------|--------------------|
E|--------------------------------------|--------------------|
Добавлено: 18.05.2012
Другие материалы по этой песне:
  • Аккорды и текст

Страница создана 18.05.2012
http://primanota.ru/mago-de-oz/volaverunt-opus-666-chords.htm
Привет, Гость.
Предлагаем пройти революционный курс по гитаре.
Подарок от PrimaNota.Ru, забирай!