PrimaNota.ru - самый крупный в мире бесплатный архив песенных текстов, аккордов, табулатур и нот


Mago De Oz - Mi Nombre Es Rock N Roll - текст песни, таба, видео

Регистрация Запомнить меня
Войти через:  Facebook Google Twitter Vk Yandex Mail.ru

Mago De Oz - Mi Nombre Es Rock N Roll - текст песни, таба, видео

Печатать
Просмотров: 133
Intro
e/--------------------------------------------------|
b/--------------------------------------------------|
g/-------------5b*-------------7--5-----7--5--------| X2
d/------5--7--------7—7/-------------7--------7--7~-|
a/---7----------------------------------------------|
E/--------------------------------------------------|


ligth bending
(0:18)
--------------------------------------------------------|
--------------------------------------------------------|
---------------5~---------------7--5------7--5----------|
-----5--7--7-------7--7--7/-----------7----------7--7~--|
--7-----------------------------------------------------|
--------------------------------------------------------|

--------------------------------------------------------|
--------------------------------------------------------|
---------------5~---------------7--5------7--5------7b--|
-----5--7--7-------7--7--7/-----------7----------7------|
--7-----------------------------------------------------|
--------------------------------------------------------|

(0:31)
----------------------------|
----------------------------|
--7--/7--5------------------|
------------7--5-----5--7---|
------------------7---------|
----------------------------|

Chords
 A5                 G5
Siempre fui lo que quise ser
 D5                A5
y nunca me arrepentí, noo
 A5             G5
A veces salgo fuera de la ley
 D5                  A5
y luego vuelvo a entrar
 A5                     G5
No tengo fronteras, mi patria es mi nevera
 D5                       A5
mi himno es un rock & roll
    A5                          G5
Tengo bragas por bandera y por casa tus caderas
   D5                       A5
Cuando el sol se pone, yo también.


C5         D5
Mi moto es mi uniforme
 A5
(trágate kilómetros, pisa y ponla a 100)
C5        D5              E5
La carretera es nuestro hogar yeah


A5                 F5
Si quieres rock, si buscas rock,
G5                     A5
mi nombre es rock and roll
A5              F5
Nada de amor, sólo sudor.
G5                 A5
Mi moto, sexo y rock yeah

A5                F5
Si quieres rock, si buscas rock,
G5                     A5
mi nombre es rock and roll
F5                     G5
Y cuando muera que se lea en mi tumba
E5
mi nombre es rock and roll

A5                G5
Nunca creí en la Biblia, noo
D5                     A5
ni en la toga ni el Corán
A5                    G5
Mi fe en un libro no cabe, es mucho más
D5                   A5
está hecha de libertad!!!


A5                G5
Viviré, viajaré, moriré, vestiré
   D5                        A5
sin traje ni corbata que me haga sudar
    A5                              G5
el viento peina mis recuerdos barre los malos momentos
      D5                A5
La velocidad me aleja de mí

C5          D5
Nos siguen los maderos
A5
(trágate km, pisa y ponla a 100)
C5         D5       E5
Si vas cargado, tírala


A5                 F5
Si quieres rock, si buscas rock,
G5                     A5
mi nombre es rock and roll
A5              F5
Nada de amor, sólo sudor.
G5                 A5
Mi moto, sexo y rock yeah

A5                F5
Si quieres rock, si buscas rock,
G5                     A5
mi nombre es rock and roll
F5                     G5
Y cuando muera que se lea en mi tumba
E5
mi nombre es rock and roll
Добавлено: 24.05.2012
Другие материалы по этой песне:
  • Аккорды и текст

Страница создана 24.05.2012
http://primanota.ru/mago-de-oz/mi-nombre-es-rock-n-roll-chords.htm
Привет, Гость.
Предлагаем пройти революционный курс по гитаре.
Подарок от PrimaNota.Ru, забирай!