PrimaNota.ru - самый крупный в мире бесплатный архив песенных текстов, аккордов, табулатур и нот


Mago De Oz - Mago De Oz - текст песни, таба, видео

Регистрация Запомнить меня
Войти через:  Facebook Google Twitter Vk Yandex Mail.ru

Mago De Oz - Mago De Oz - текст песни, таба, видео

Печатать
Просмотров: 167
Mago de Oz - Mago de Oz

"La Bruja"

---------
  /  -->  Slide 
  h  -->  hammer-on
  p  -->  pull-off
~~~  -->  vibrato


Intro de fondo.
                  x3                     x3
E|-----0------0------0--|-----0------3------3------------------------|
B|-------1------1-------|-------1------1-----------------------------|
G|---------2------2-----|---------2------2---------------------------|
D|----------------------|--------------------------------------------|
A|--0-------------------|--0-----------------------------------------|
E|----------------------|--------------------------------------------|

Esto va todo el Intro


Intro (solo):

e|--7-8--7--5--------------------7-8--7--5---------------------|
B|------------8--6-5-6-5--------------------8--6-5-5-6-5-------|
G|------------------------7--5----------------------------7--5-|
D|-------------------------------------------------------------|
A|-------------------------------------------------------------|
E|-------------------------------------------------------------|
                                                    
e|---------------------------------------------------b10--10---|
B|-----------------------------------6-6-5-3----------------13-|
G|--4--5-5-----------------------2-4---------8--9-9------------|
D|-------------------------2-3-5-------------------------------|
A|-------------------2-3-5-------------------------------------|
E|-----------0-1-3-5-------------------------------------------|

e|--10---------------------------------------------------------|
B|--------13--12---13--12-10-12--12--13--12---12-10--12-13-----|
G|-------------------------------------------------------------|
D|-------------------------------------------------------------|
A|-------------------------------------------------------------|
E|-------------------------------------------------------------|
                 
e|----------------b15---15--15---------------------------------|
B|--13-15--15-17-----------------18-17----18-------------------|
G|-------------------------------------------------------------|
D|-------------------------------------------------------------|
A|-------------------------------------------------------------|
E|-------------------------------------------------------------|

 Verso (0:51)     (1:00)
E|--------------|-----------------------------------------------------|
B|--------------|-----------------------------------------------------|
G|--------------|-----------------------------------------------------|
D|--7x...-------|---7x...---5x...---7x...---5x...---3x...--5-5--5x----|
A|--7x...-------|---7x...---5x...---7x...---5x...---3x...--5-5--5x----|
E|--5x...-------|---5x...---3x...---5x...---3x...---1x...--3-3--3x----|

           (1:33)
E|---------|------------------------------------|
B|---------|------------------------------------|
G|---------|--5x...-----------------------------|
D|--5x...--|--5x...---5x...---3x...-------------|
A|--5x...--|--3x...---5x...---3x...-------------|
E|--3x...--|----------3x...---1x...-------------|



  (1:42)
E|-------------------------------------------------------------------|
B|-------------------------------------------------------------------|
G|-------------------------------------------------------------------|
D|---7x...---5x...---7x...---5x...---3x...---5x...---3x...-----------|
A|---7x...---5x...---7x...---5x...---3x...---5x...---3x...-----------|
E|---5x...---3x...---5x...---3x...---1x...---3x...---1x...-----------|


  riff  Rapido (2:11) dos veces        (2:23)        tres veces
E|----------------------------------|----------------------------|
B|----------------------------------|----------------------------|
G|----------------------------------|----------------------------|
D|--7....--5....--3....---3x-5x-7x--|--7xx--5xx--3....--3x-5x-7x-|
A|--7....--5....--3....---3x-5x-7x--|--7xx--5xx--3....--3x-5x-7x-|
E|--5....--3....--1....---1x-3x-7x--|--5xx--3xx--1....--1x-3x-7x-|

(2:37) 
E|-------------------------------------------------------------------|
B|-------------------------------------------------------------------|
G|-------------------------------------------------------------------|
D|--7xx--5xx--3....---5~~~--5~~~---3---7---5xxxxxxxxxxxxxxx----------|
A|--7xx--5xx--3....---5~~~--5~~~---3---7---5xxxxxxxxxxxxxxx----------|
E|--5xx--3xx--1....---3~~~--3~~~---1---5---3xxxxxxxxxxxxxxx----------|


  Coro
  (2:48)  asi, hasta el minuto   (4:09) y este va hasta el minuto (4:29)
E|-------------------------------|------------------------------------|
B|-------------------------------|------------------------------------|
G|--5xx5----------------------5--|--8xx8-----------------------8------|
D|--5xx5--5xx5--7xx7--3---3-5-5--|--8xx8--8xx8--10xx10--6--6-8-8------|
A|--3xx3--5xx5--7xx7--3---3-5-3--|--6xx6--8xx8--10xx10--6--6-8-6------|
E|--------3xx3--5xx5--1---1-3----|--------6xx6---8xx8---4--4-6--------|

  (4:29)
E|---------------------------------------|-----------------------------------|
B|---------------------------------------|-----------------------------------|
G|-8xx8xx8-------------------------------|-----------------------------------|
D|----------8xx8xx8--10xx10xx10--6xx6xx6-|-10xx10xx10--5xx5xx5--7xx7xx7------|
A|---------------------------------------|-----------------------------------|
E|---------------------------------------|-----------------------------------|

E|------------------------------------------------------------------|
B|------------------------------------------------------------------|
G|------------------------------------------------------------------|
D|--3xxx--3--5--3---------------------------------------------------|
A|--------------3---------------------------------------------------|
E|--------------1---------------------------------------------------|


Parte de Violin (5:31)
E|---------------8--8------8-10---10---11-10-8---8---8/7------8-10-8--|
B|---------------------10--------------------------------10-----------|
G|--10---10-9-7-------------------------------------------------------|
D|--------------------------------------------------------------------|
A|--------------------------------------------------------------------|
E|--------------------------------------------------------------------|
                                                  (6:09)
E|-----------------------------------------------|--------------------|
B|---------------------8-------------------------|--------------------|
G|--10--10-9-7-10---10---9-10--10-9-7-10-10-7-9--|--------------------|
D|-----------------------------------------------|---7----------------|
A|-----------------------------------------------|---7----------------|
E|-----------------------------------------------|---5----------------|



Violin Rapido (6:09)
E|----------12----------------12-------------------10----------------10-------|
B|-10-12-13----13-12-10-12-13----13-12-------10-12----12-10----10-12----12----|
G|----------------------------------------12----------------12-------------12-|
D|----------------------------------------------------------------------------|
A|----------------------------------------------------------------------------|
E|----------------------------------------------------------------------------|


E|---------8--------------8---------|
B|----8-10---10-8----8-10---10------|
G|-10-------------10-----------10---|
D|----------------------------------|
A|----------------------------------|
E|----------------------------------|


Riff 2

Guitarra (6:29) 4 veces                     (6:27)
E|---------------------------------------|-----------------------------------|
B|---------------------------------------|-----------------------------------|
G|---------------------------------------|-----------------------------------|
D|--7x...--5x...--3x...--5---3-5-7-------|--3---7---5xxxxxxxxxxxxxxx---------|
A|--7x...--5x...--3x...--5---3-5-7-------|--3---7---5xxxxxxxxxxxxxxx---------|
E|--5x...--3x...--1x...--3---1-3-7-------|--1---5---3xxxxxxxxxxxxxxx---------|

Coro  (7:01) hasta el minuto (7:42)

Riff 2  (7:43) hasta el minuto (8:07)

Los últimos minutos ya son improvisación de Mago de oz.

Добавлено: 16.06.2012
Другие материалы по этой песне:

Страница создана 07.06.2012
http://primanota.ru/mago-de-oz/mago-de-oz-chords.htm
Привет, Гость.
Предлагаем пройти революционный курс по гитаре.
Подарок от PrimaNota.Ru, забирай!