PrimaNota.ru - самый крупный в мире бесплатный архив песенных текстов, аккордов, табулатур и нот


Mago De Oz - La Posada De Los Muertos - текст песни, таба, видео

Регистрация Запомнить меня
Войти через:  Facebook Google Twitter Vk Yandex Mail.ru

Mago De Oz - La Posada De Los Muertos - текст песни, таба, видео

Печатать
Просмотров: 137
Alza tu cerveza brinda por la libertad ven
y vente de fiesta el infierno es este bar

E||-------------------|
B||-------------------|
G||--------------5----|
D||--------------5----|
A||--------------3----|
E||-------------------|

E||-----------------------------------|-----------------------------------|
B||-----------------------------------|-----------------------------------|
G||-----------------------------------|--5--------------------------------|
D||--3--------------------------------|--5--------------------------------|
A||--3--------------------------------|--3----3--3--3--3--3----3--3--3----|
E||--1----1--1--1--1--1----1--3--5----|-----------------------------------|



E||-----------------------------------|-----------------------------------|
B||-----------------------------------|-----------------------------------|
G||--7--------------------------------|--5--------------------------------|
D||--7--------------------------------|--5--------------------------------|
A||--5----5--5--5--5--5----5--5--5----|--3----3--3--3--3--3----3--3--3----|
E||-----------------------------------|-----------------------------------|



E||------------------------------------|----------------------------------|
B||------------------------------------|----------------------------------|
G||--3----------------5----------------|----------------------------------|
D||--3----------------5----------------|--3-------------------------------|
A||--1----1--1--1--1--3----3--3--3--3--|--3-------------------------------|
E||------------------------------------|--1----1--1--1--1--1----1--3--5---|



E||-----------------------------------|-----------------------------------|
B||-----------------------------------|-----------------------------------|
G||--5--------------------------------|--7--------------------------------|
D||--5--------------------------------|--7--------------------------------|
A||--3----3--3--3--3--3----3--3--3----|--5----5--5--5--5--5----5--5--5----|
E||-----------------------------------|-----------------------------------|



E||-----------------------------------|-----------------------------------|
B||-----------------------------------|-----------------------------------|
G||--5--------------------------------|--3----------------5---------------|
D||--5--------------------------------|--3----------------5---------------|
A||--3----3--3--3--3--3----3--3--3----|--1----1--1--1--1--3----3--3--3--3-|
E||-----------------------------------|-----------------------------------|


E||-------------------|
B||-------------------|
G||--7----------------|
D||--7----------------|
A||--5----------------|
E||-------------------|




Si has perdido el rumbo escúchame
Llegar a la meta no es vencer
Lo importante es el camino y en el
Caer levantarse insistir aprender


E||------------------|
B||------------------|
G||------------------|
D||---19-s-1---------|
A||---19-s-1---------|
E||---19-s-1---------|
Esta parte solo deslizar la púa sobre las cuerdas


Si has perdido un beso en un adiós

E||-----------------------------------|----------------------------------|
B||-----------------------------------|----------------------------------|
G||--7----------------7---------------|--7---------------5---------------|
D||--7----------------7---------------|--7---------------5---------------|
A||--5----5--5--5--5--5---5--5--5--5--|--5---5--5--5--5--3----3--3--3--3-|
E||-----------------------------------|----------------------------------|

No huyas del destino que se negó

E||-----------------------------------|----------------------------------|
B||-----------------------------------|----------------------------------|
G||--3----------------3---------------|--3---------------2---------------|
D||--3----------------3---------------|--3---------------2---------------|
A||--1----1--1--1--1--1---1--1--1--1--|--1---1--1--1--1--0----0--0--0--0-|
E||-----------------------------------|----------------------------------|


la oportunidad de ser feliz

E||-----------------------------------|----------------------------------|
B||-----------------------------------|----------------------------------|
G||--7----------------7---------------|--7---------------5---------------|
D||--7----------------7---------------|--7---------------5---------------|
A||--5----5--5--5--5--5---5--5--5--5--|--5---5--5--5--5--3----3--3--3--3-|
E||-----------------------------------|----------------------------------|


Ven con nosotros estamos aquí

E||-----------------------------------|----------------------------------|
B||-----------------------------------|----------------------------------|
G||--3----------------3---------------|--3---------------2---------------|
D||--3----------------3---------------|--3---------------2---------------|
A||--1----1--1--1--1--1---1--1--1--1--|--1---1--1--1--1--0----0--0--0--0-|
E||-----------------------------------|----------------------------------|




En esta posada los muertos cuentan su vida y se ríen de quien

E||-------------------|-------------------|-------------------|
B||-------------------|-------------------|-------------------|
G||-------------------|--5----------------|-------------------|
D||--3----------------|--5----------------|--5----------------|
A||--3----------------|--3----------------|--5----------------|
E||--1----------------|-------------------|--3----------------|


Estando vivo desea estar muerto  en el más haya nunca dan de beber


E||--------------------|-------------------|-------------------|
B||--------------------|-------------------|-------------------|
G||--7------------5----|-------------------|--5----------------|
D||--7------------5----|--3----------------|--5----------------|
A||--5------------3----|--3----------------|--3----------------|
E||--------------------|--1----------------|-------------------|



Alza tu cerveza brinda por la libertad

E||-------------------|--------------------------|-------------------|
B||-------------------|--------------------------|-------------------|
G||-------------------|-----------------5--------|--7----------------|
D||--5----------------|--3----3----3----5--------|--7----------------|
A||--5----------------|--3----3----3----3--------|--5----------------|
E||--3----------------|--1----1----1-------------|-------------------|


ven y vente de fiesta Y a la muerte emborrachala

E||------------------|------------------|-----------------|------------|
B||------------------|------------------|-----------------|------------|
G||------------------|--7---------------|--5--------------|------------|
D||--7---------------|--7---------------|--5--------------|--3---------|
A||--7---------------|--5---------------|--3--------------|--3---------|
E||--5---------------|------------------|-----------------|--1---------|


y que el cielo te espere pues infierno este bar

E||-------------|-----------------|-------------------------------------|
B||-------------|-----------------|-------------------------------------|
G||--5----------|--3-------5------|--7----------------------------------|
D||--5----------|--3-------5------|--7----------------------------------|
A||--3----------|--1-------3------|--5--5--5--5--5--5--5--5--5--5--5--5-|
E||-------------|-----------------|-------------------------------------|



E||-----------------------------------|---------------------------------|
B||-----------------------------------|---------------------------------|
G||-----------------------------------|--5------------------------------|
D||--3--------------------------------|--5------------------------------|
A||--3--------------------------------|--3----3--3--3--3--3----3--3--3--|
E||--1----1--1--1--1--1----1--3--5----|---------------------------------|



E||-----------------------------------|---------------------------------|
B||-----------------------------------|---------------------------------|
G||--7--------------------------------|--5------------------------------|
D||--7--------------------------------|--5------------------------------|
A||--5----5--5--5--5--5----5--5--5----|--3----3--3--3--3--3----3--3--3--|
E||-----------------------------------|---------------------------------|



E||------------------------------------|--------------------------------|
B||------------------------------------|--------------------------------|
G||--3----------------5----------------|--------------------------------|
D||--3----------------5----------------|--3-----------------------------|
A||--1----1--1--1--1--3----3--3--3--3--|--3-----------------------------|
E||------------------------------------|--1----1--1--1--1--1----1--3--5-|



E||-----------------------------------|---------------------------------|
B||-----------------------------------|---------------------------------|
G||--5--------------------------------|--7------------------------------|
D||--5--------------------------------|--7------------------------------|
A||--3----3--3--3--3--3----3--3--3----|--5----5--5--5--5--5----5--5--5--|
E||-----------------------------------|---------------------------------|



E||-----------------------------------|---------------------------------|
B||-----------------------------------|---------------------------------|
G||--5--------------------------------|--3---------------5--------------|
D||--5--------------------------------|--3---------------5--------------|
A||--3----3--3--3--3--3----3--3--3----|--1---1--1--1--1--3----3--3--3--3|
E||-----------------------------------|---------------------------------|


E||-------------------|
B||-------------------|
G||--7----------------|
D||--7----------------|
A||--5----------------|
E||-------------------|



SI LA NOCHE ES TAN OSCURA QUE
NI TUS PROPIAS MANOS CONSIGES VER


E||----19-S-4--------|
B||----19-S-4--------|
G||----19-S-4--------|
D||------------------|
A||------------------|
E||------------------|
Esta parte solo deslizar la púa sobre las cuerdas


TEN SEGURO QUE AMENECERA

E||-----------------------------------|--------------------------------|
B||-----------------------------------|--------------------------------|
G||--7----------------7---------------|--7--------------5--------------|
D||--7----------------7---------------|--7--------------5--------------|
A||--5----5--5--5--5--5---5--5--5--5--|--5--5--5--5--5--3----3--3--3--3|
E||-----------------------------------|--------------------------------|



Y MIENTRAS TANTO QUE VIVA MI BAR

E||-----------------------------------|---------------------------------|
B||-----------------------------------|---------------------------------|
G||--3----------------3---------------|--3---------------2--------------|
D||--3----------------3---------------|--3---------------2--------------|
A||--1----1--1--1--1--1---1--1--1--1--|--1---1--1--1--1--0---0--0--0--0-|
E||-----------------------------------|---------------------------------|




EN MI CABERNA LOS MUERTOS CUANDO AMANECE

-------------------|-------------------|-------------------|
-------------------|-------------------|-------------------|
-------------------|--5----------------|-------------------|
--3----------------|--5----------------|--5----------------|
--3----------------|--3----------------|--5----------------|
--1----------------|-------------------|--3----------------|



SE VAN A INFRINGIR  DUROSA CASTIGOS
Y OSCUROS TORMENTOS A LOS QUE NI QUIEREN NI DEJAN VIVIR



--------------------|-------------------|-------------------|
--------------------|-------------------|-------------------|
--7------------5----|-------------------|--5----------------|
--7------------5----|--3----------------|--5-----------5----|
--5------------3----|--3----------------|--3-----------5----|
--------------------|--1----------------|--------------3----|


Alza tu cerveza brinda por la libertad

E||-------------------|--------------------------|-------------------|
B||-------------------|--------------------------|-------------------|
G||-------------------|-----------------5--------|--7----------------|
D||--5----------------|--3----3----3----5--------|--7----------------|
A||--5----------------|--3----3----3----3--------|--5----------------|
E||--3----------------|--1----1----1-------------|-------------------|


ven y vente de fiesta Y A LA MUERTE EMBORRACHALA

E||---------------|-----------------|-----------------|-----------------|
B||---------------|-----------------|-----------------|-----------------|
G||---------------|--7--------------|--5--------------|-----------------|
D||--7------------|--7--------------|--5--------------|--3--------------|
A||--7------------|--5--------------|--3--------------|--3--------------|
E||--5------------|-----------------|-----------------|--1--------------|


Y QUE EL CIELO TE ESPERE PUES INFIERNO ESTE BAR

E||--------------|----------------|--------------------------------------|
B||--------------|----------------|--------------------------------------|
G||--5-----------|--3-------5-----|--7-----------------------------------|
D||--5-----------|--3-------5-----|--7-----------------------------------|
A||--3-----------|--1-------3-----|--5--5--5--5--5--5--5--5--5--5--5--5--|
E||--------------|----------------|--------------------------------------|
Alza tu cerveza brinda por la libertad


----------------------------------|----------------------------------|
----------------------------------|----------------------------------|
--7-----------------------7-------|----------------------------------|
--7-----------------------7-------|--7-----------------------7-------|
--5----5--5----5--5----5--5--5----|--7-----------------------7-------|
----------------------------------|--5----5--5----5--5----5--5--5----|

ven y vente de fiesta Y A LA MUERTE ODRAS CHALAR


----------------------------------|----------------------------------|
----------------------------------|----------------------------------|
--7-----------------------7-------|--5-----------------------5-------|
--7-----------------------7-------|--5-----------------------5-------|
--5----5--5----5--5----5--5--5----|--3----3--3----3--3----3--3--3----|
----------------------------------|----------------------------------|

Y QUE EL CIELO TE ESPERE PUES INFIERNO ESTE BAR


----------------------------------|----------------------------------|
----------------------------------|----------------------------------|
----------------------------------|--5-----------------------5-------|
--3-----------------------3-------|--5-----------------------5-------|
--3-----------------------3-------|--3----3--3----3--3----3--3--3----|
--1----1--1----1--1----1--1--1----|----------------------------------|



----------------------------------|--------------------------------------|
----------------------------------|--------------------------------------|
--3---------------5---------------|--7-----------------------------------|
--3---------------5---------------|--7-----------------------------------|
--1----1--1----1--3----3--3----3--|--5--5--5--5--5--5--5--5--5--5--5--5--|
----------------------------------|--------------------------------------|



SOLO


b= es como un bend


--------------------------|----------------------------|
--10----------------------|--------------13------------|
--12b-----------12b-10----|--10----12b-------12b-------|
-----------------------12-|----------------------------|
--------------------------|----------------------------|
--------------------------|----------------------------|



--------------------------------------------------|
--10----------------------------------------------|
-----12-10-12-10----10----------------------------|
-----------------12----12-10-12-10----10----------|
-----------------------------------12----12-10-12-|
--------------------------------------------------|



--------------------10-12-12~---13--|--15b----15-13-15b-15-13----13-------|
--------------10-13-----------------|-------------------------15----15-13-|
--------10-12-----------------------|-------------------------------------|
--10-12-----------------------------|-------------------------------------|
------------------------------------|-------------------------------------|
------------------------------------|-------------------------------------|



--------------12-13----12-13~---------|
--15-13----15-------15------------13/-|
--------14----------------------------|
--------------------------------------|
--------------------------------------|
--------------------------------------|



---------------------------------------------------------|
--18---17---15----15-17-15-------------------------------|
---------------17----------17-16-14-------------14-16-17-|
------------------------------------17-16-14-17----------|
---------------------------------------------------------|
---------------------------------------------------------|



----------------------------|
----------------------------|
--17b--17b--17----17b-------|
---------------17-----------|
----------------------------|
----------------------------|



------17--17--17--17--17----15----17----|
----------------------------------------|
----------------------------------------|
----------------------------------------|
----------------------------------------|
----------------------------------------|



--------17--17--17--17--17----15----17----|
--18--------------------------------------|
------------------------------------------|
------------------------------------------|
------------------------------------------|
------------------------------------------|



--------17--17--17--17--17----15----17----|
--18--------------------------------------|
------------------------------------------|
------------------------------------------|
------------------------------------------|
------------------------------------------|



--18----17----15--------------------|-----17--17--17--17--17---15---17---|
--------------------18----17---15---|------------------------------------|
------------------------------------|------------------------------------|
------------------------------------|------------------------------------|
------------------------------------|------------------------------------|
------------------------------------|------------------------------------|



------17--17--17--17--17----15----17----|
----------------------------------------|
----------------------------------------|
----------------------------------------|
----------------------------------------|
----------------------------------------|



------17--17--17--17--17----15----17----|
----------------------------------------|
----------------------------------------|
----------------------------------------|
----------------------------------------|
----------------------------------------|



--18--18--18--17--17--17--15--15--15--------------|
--------------------------------------18--17--15--|
--------------------------------------------------|
--------------------------------------------------|
--------------------------------------------------|
--------------------------------------------------|




----------------------------------|----------------------------------|
----------------------------------|----------------------------------|
--7-----------------------7-------|--5-----------------------5-------|
--7-----------------------7-------|--5-----------------------5-------|
--5----5--5----5--5----5--5--5----|--3----3--3----3--3----3--3--3----|
----------------------------------|----------------------------------|



----------------------------------|----------------------------------|
----------------------------------|----------------------------------|
--3-----------------------3-------|--2-----------------------2-------|
--3-----------------------3-------|--2-----------------------2-------|
--1----1--1----1--1----1--1--1----|--0----0--0----0--0----0--0--0----|
----------------------------------|----------------------------------|



----------------------------------|----------------------------------|
----------------------------------|----------------------------------|
--7-----------------------7-------|--5-----------------------5-------|
--7-----------------------7-------|--5-----------------------5-------|
--5----5--5----5--5----5--5--5----|--3----3--3----3--3----3--3--3----|
----------------------------------|----------------------------------|



----------------------------------|------------------------------------|
----------------------------------|------------------------------------|
--3-----------------------3-------|--2---------2--0--2--0--------------|
--3-----------------------3-------|-------0----------------3--2--3--2--|
--1----1--1----1--1----1--1--1----|------------------------------------|
----------------------------------|------------------------------------|



----------------------------------|
----------------------------------|
--2----2----0----4----------------|
-----------------4----------------|
-----------------2----------------|
----------------------------------|


AL ZA TU CERVEZA VEN Y BRINDA
POR VIVIR JUNTEMOS NUESTRAS
COPAS ESTA NOCHE ES PARA TI


E||------------------|
B||------------------|
G||------------------|
D||---19-s-1-s-19----|
A||---19-s-1-s-19----|
E||---19-s-1-s-19----|
Esta parte solo deslizar la púa sobre las cuerdas



Alza tu cerveza brinda por la libertad




-----------------|-----------------|-------------------|---------------|
-----------------|-----------------|-------------------|---------------|
--7--------------|-----------------|--7----------------|--5------------|
--7--------------|--7--------------|--7----------------|--5------------|
--5--------------|--7--------------|--5----------------|--3------------|
-----------------|--5--------------|-------------------|---------------|

ven y vente de fiesta Y A LA MUERTE EMBORRACHALA



-------------------|-------------------|--------------------|
-------------------|-------------------|--------------------|
-------------------|--5----------------|--3--------5--------|
--3----------------|--5----------------|--3--------5--------|
--3----------------|--3----------------|--1--------3--------|
--1----------------|-------------------|--------------------|


 Alza tu cerveza brinda por la libertad


------------------------------------|------------------------------------|
------------------------------------|------------------------------------|
--7---------------------------------|--7---------------------------------|
--7---------------------------------|--7---------------------------------|
--5--5--5--5--5--5--5--5--5--5--5--5|--5--5--5--5--5--5--5--5--5--5--5--5|
------------------------------------|------------------------------------|


 Y QUE EL CIELO TE ESPERE PUES INFIERNO ESTE BAR


------------------------------------|------------------------------------|
------------------------------------|------------------------------------|
------------------------------------|--7---------------------------------|
--7---------------------------------|--7---------------------------------|
--7---------------------------------|--5--5--5--5--5--5--5--5--5--5--5--5|
--5--5--5--5--5--5--5--5--5--5--5--5|------------------------------------|



------------------------------------|------------------------------------|
------------------------------------|------------------------------------|
--5---------------------------------|------------------------------------|
--5---------------------------------|--3---------------------------------|
--3--3--3--3--3--3--3--3--3--3--3--3|--3---------------------------------|
------------------------------------|--1--1--1--1--1--1--1--1--1--1--1--1|



------------------------------------|------------------------------------|
------------------------------------|------------------------------------|
--5---------------------------------|--3-----------------5---------------|
--5---------------------------------|--3-----------------5---------------|
--3--3--3--3--3--3--3--3--3--3--3--3|--1--1--1--1--1--1--3--3--3--3--3--3|
------------------------------------|------------------------------------|



--------------------------------------|----------------------------------|
--------------------------------------|----------------------------------|
--7-----------------------------------|----------------------------------|
--7-----------------------------------|--3-------------------------------|
--5--5--5--5--5--5--5--5--5--5--5--5--|--3-------------------------------|
--------------------------------------|--1----1--1--1--1--1----1--3--5---|



-----------------------------------|-----------------------------------|
-----------------------------------|-----------------------------------|
--5--------------------------------|--7--------------------------------|
--5--------------------------------|--7--------------------------------|
--3----3--3--3--3--3----3--3--3----|--5----5--5--5--5--5----5--5--5----|
-----------------------------------|-----------------------------------|



-----------------------------------|------------------------------------|
-----------------------------------|------------------------------------|
--5--------------------------------|--3----------------5----------------|
--5--------------------------------|--3----------------5----------------|
--3----3--3--3--3--3----3--3--3----|--1----1--1--1--1--3----3--3--3--3--|
-----------------------------------|------------------------------------|



-----------------------------------|-----------------------------------|
-----------------------------------|-----------------------------------|
-----------------------------------|--5--------------------------------|
--3--------------------------------|--5--------------------------------|
--3--------------------------------|--3----3--3--3--3--3----3--3--3----|
--1----1--1--1--1--1----1--3--5----|-----------------------------------|



-----------------------------------|-----------------------------------|
-----------------------------------|-----------------------------------|
--7--------------------------------|--5--------------------------------|
--7--------------------------------|--5--------------------------------|
--5----5--5--5--5--5----5--5--5----|--3----3--3--3--3--3----3--3--3----|
-----------------------------------|-----------------------------------|



------------------------------------|------------------------------------|
------------------------------------|------------------------------------|
--3----------------5----------------|--2---------2--0--2--0--------------|
--3----------------5----------------|-------0----------------3--2--3--2--|
--1----1--1--1--1--3----3--3--3--3--|------------------------------------|
------------------------------------|------------------------------------|



--------------------------|
--------------------------|
--2----2----0----4--------|
-----------------4--------|
-----------------2--------|
--------------------------|


Добавлено: 05.07.2012
Другие материалы по этой песне:

Страница создана 04.06.2012
http://primanota.ru/mago-de-oz/la-posada-de-los-muertos-chords.htm
Привет, Гость.
Предлагаем пройти революционный курс по гитаре.
Подарок от PrimaNota.Ru, забирай!