PrimaNota.ru - самый крупный в мире бесплатный архив песенных текстов, аккордов, табулатур и нот


Mago De Oz - La Costa Del Silencio - текст песни, таба, видео

Регистрация Запомнить меня
Войти через:  Facebook Google Twitter Vk Yandex Mail.ru

Mago De Oz - La Costa Del Silencio - текст песни, таба, видео

Печатать
Просмотров: 178
Well, since there are no tabs for this awesome song, I've decided to post this one 
Keep on rocking, Mago!!!!!!! \m/

KEY:
#= Rake
*= Mute strings while playing
h= hammer-on
p= pull-off
/= slide
b= bend
~= Let ring

Intro:

e|--------------------------------------------------------------|
B|--------------------------------------------------------------|
G|--7-7-7-7-7-7-9-9-9-9-9-9-10-10-10-10-10-10-12-12-12-12-12-12-|
D|--7-7-7-7-7-7-9-9-9-9-9-9-10-10-10-10-10-10-12-12-12-12-12-12-|
A|--5-5-5-5-5-5-7-7-7-7-7-7-8--8--8--8--8--8--10-10-10-10-10-10-|
E|--------------------------------------------------------------|

(Enter Violins)

Background Guitar (When the violins are playing):

Play two times
e|----------------------------------------------------------------|
B|----------------------------------------------------------------|
G|--------5-5-5*--7-7-7*--5-5-5*--3-3-3*----------3-3-3*--5-5-5*--|
D|--3-3*--5-5-5*--7-7-7*--5-5-5*--3-3-3*--3-3-3*--3-3-3*--5-5-5*--|
A|--3-3*--3-3-3*--5-5-5*--3-3-3*--1-1-1*--3-3-3*--1-1-1*--3-3-3*--|
E|--1-1*----------------------------------1-1-1*------------------|

(violins exit)

Pre-verse
e|------------------------------|
B|------------------------------|
G|--7-7*--7-7-7*--7-7-7*--3--5--|
D|--7-7*--7-7-7*--7-7-7*--3--5--|
A|--5-5*--5-5-5*--5-5-5*--1--3--|
E|------------------------------|

Verse
e|---------------------------------------------|
B|---------------------------------------------|
G|--7-7*---------7-7-7*-----7-7-7*----7--5--7--|
D|--7-7*---------7-7-7*-----7-7-7*----7--5--7--|
A|--5-5*---------5-5-5*-----5-5-5*----5--3--5--|
E|---------------------------------------------|
          El mar escupía un lamento...

                           Violin: e|-----0-1-0------|
                                   B|-1-3-------1-3--|

e|---------------------------------------------|
B|---------------------------------------------|
G|--7-7*---------7-7-7*-----7-7-7*----7--5--7--|
D|--7-7*---------7-7-7*-----7-7-7*----7--5--7--|
A|--5-5*---------5-5-5*-----5-5-5*----5--3--5--|
E|---------------------------------------------|
     Tan tenue que nadie lo oyó...

                           Violin: e|-5-3---3-5-6-5--|
                                   B|-----6----------|

e|---------------------------------------------|
B|---------------------------------------------|
G|--7-7*---------7-7-7*-----7-7-7*----7--5--7--|
D|--7-7*---------7-7-7*-----7-7-7*----7--5--7--|
A|--5-5*---------5-5-5*-----5-5-5*----5--3--5--|
E|---------------------------------------------|
        Un dolor de tan adentro...

                           Violin: e|-5-3------------|
                                   B|-----6-5-6-5-3--|

e|-------------------------------------------|
B|-------------------------------------------|
G|--7-7*---------5-5-5*----------------3--5--|
D|--7-7*---------5-5-5*------5---5-----3--5--|
A|--5-5*---------3-3-3*------5---5-----1--3--|
E|---------------------------3---3-----------|
          Que toda una costa murio....

Pre-chorus:
e|-----------------------------------|
B|-----------------------------------|
G|----------5-5*------7-7*-----2-2*--|
D|--3-3*----5-5*------7-7*-----2-2*--|
A|--3-3*----3-3*------5-5*-----0-0*--|
E|--1-1*-----------------------------|
    Llora lamentos la nube que enfermo...

e|------------------------------------|
B|------------------------------------|
G|--3-3*-----5-5*-------7-7*--7-7-7*--|
D|--3-3*-----5-5*-------7-7*--7-7-7*--|
A|--1-1*-----3-3*-------5-5*--5-5-5*--|
E|------------------------------------|
  Y escribe espantos en la arena el dolor...

e|-----------------------------------------|
B|-----------------------------------------|
G|-------------5-5*-------7-7*-------2-2*--|
D|--3-3*-------5-5*-------7-7*-------2-2*--|
A|--3-3*-------3-3*-------5-5*-------0-0*--|
E|--1-1*-----------------------------------|
    Arrulla el miedo a un delfín que bebió...

e|------------------------------------------------------------|
B|------------------------------------------------------------|
G|--3-3*---------7-7*------5-5*------------------------3---5--|
D|--3-3*---------7-7*------5-5*---------5-5-5-5-5-5----3---5--|
A|--1-1*---------5-5*------3-3*---------5-5-5-5-5-5----1---3--|
E|--------------------------------------3-3-3-3-3-3-----------|
    Que una agua negra, su suerte emigró...


Chorus:
e|------------------------|
B|------------------------|
G|---------------------5--|
D|--3----3-3-----------5--|
A|--3----3-3-----------3--|
E|--1----1-1--------------|
    Ven, quiero oír tu voz...

e|-----------------------|
B|-----------------------|
G|------5-5----------7---|
D|------5-5----------7---|
A|------3-3----------5---|
E|-----------------------|
  Y si aún nos queda amor...

e|-----------------------------|
B|-----------------------------|
G|--7-7---------------3----5---|
D|--7-7---------------3----5---|
A|--5-5---------------1----3---|
E|-----------------------------|
        Impidamos que esto muera...

e|-----------------------------|
B|-----------------------------|
G|--------------------------5--|
D|--3----3-3----------------5--|
A|--3----3-3----------------3--|
E|--1----1-1-------------------|
    Ven, pues en tu interior...

e|----------------------|
B|----------------------|
G|--5-5-------------7---|
D|--5-5-------------7---|
A|--3-3-------------5---|
E|----------------------|
    Esta la solución...

e|---------------------------|
B|---------------------------|
G|---7-7----------3------5---|
D|---7-7----------3------5---|
A|---5-5----------1------3---|
E|---------------------------|
  De salvar lo bello que queda...


Play two times
e|----------------------------------------------------------------|
B|----------------------------------------------------------------|
G|--------5-5-5*--7-7-7*--5-5-5*--3-3-3*----------3-3-3*--5-5-5*--|
D|--3-3*--5-5-5*--7-7-7*--5-5-5*--3-3-3*--3-3-3*--3-3-3*--5-5-5*--|
A|--3-3*--3-3-3*--5-5-5*--3-3-3*--1-1-1*--3-3-3*--1-1-1*--3-3-3*--|
E|--1-1*----------------------------------1-1-1*------------------|
  Ahhhh....

Pre-verse
e|------------------------------|
B|------------------------------|
G|--7-7*--7-7-7*--7-7-7*--3--5--|
D|--7-7*--7-7-7*--7-7-7*--3--5--|
A|--5-5*--5-5-5*--5-5-5*--1--3--|
E|------------------------------|

Verse
e|-------------------------------------------|
B|-------------------------------------------|
G|--7-7*-------7-7-7*-----7-7-7*----7--5--7--|
D|--7-7*-------7-7-7*-----7-7-7*----7--5--7--|
A|--5-5*-------5-5-5*-----5-5-5*----5--3--5--|
E|-------------------------------------------|
      Donde se acomoda la ursura...

                           Violin: e|-----0-1-0------|
                                   B|-1-3-------1-3--|

e|---------------------------------------------|
B|---------------------------------------------|
G|--7-7*------7-7-7*--------7-7-7*----7--5--7--|
D|--7-7*------7-7-7*--------7-7-7*----7--5--7--|
A|--5-5*------5-5-5*--------5-5-5*----5--3--5--|
E|---------------------------------------------|
      Nace la ambición y el poder....

                           Violin: e|-5-3---3-5-6-5--|
                                   B|-----6----------|

e|---------------------------------------------|
B|---------------------------------------------|
G|--7-7*------7-7-7*--------7-7-7*----7--5--7--|
D|--7-7*------7-7-7*--------7-7-7*----7--5--7--|
A|--5-5*------5-5-5*--------5-5-5*----5--3--5--|
E|---------------------------------------------|
       Y este germina en la tierra...

                           Violin: e|-5-3------------|
                                   B|-----6-5-6-5-3--|

e|-------------------------------------------|
B|-------------------------------------------|
G|--7-7*---------5-5-5*----------------3--5--|
D|--7-7*---------5-5-5*------5---5-----3--5--|
A|--5-5*---------3-3-3*------5---5-----1--3--|
E|---------------------------3---3-----------|
      Que agoniza por interés....

Pre-chorus:
e|----------------------------------------|
B|----------------------------------------|
G|----------5-5*---------7-7*-------2-2*--|
D|--3-3*----5-5*---------7-7*-------2-2*--|
A|--3-3*----3-3*---------5-5*-------0-0*--|
E|--1-1*----------------------------------|
   Y una gaviota cuentan que decidio...

e|--------------------------------------|
B|--------------------------------------|
G|---3-3*------5-5*-------7-7*--7-7-7*--|
D|---3-3*------5-5*-------7-7*--7-7-7*--|
A|---1-1*------3-3*-------5-5*--5-5-5*--|
E|--------------------------------------|
  En acto suicida inmolarse en el sol...

e|-------------------------------------------|
B|-------------------------------------------|
G|-------------5-5*------7-7*-------2-2*-----|
D|--3-3*-------5-5*------7-7*-------2-2*-----|
A|--3-3*-------3-3*------5-5*-------0-0*-----|
E|--1-1*-------------------------------------|
    Rie desprecios un barco que encalló...

e|---------------------------------------------------|
B|---------------------------------------------------|
G|--3-3*---------7-7*------5-5*----------------------|
D|--3-3*---------7-7*------5-5*---------5--5--5--5---|
A|--1-1*---------5-5*------3-3*---------5--5--5--5---|
E|--------------------------------------3--3--3--3---|
    Y se desangra en su lecho la mar...

Fill 1 (Violins and guitar)

e|--------------------------------|-----------------------------------------|
G|--7-7*--7-7-7*----------2-2-2*--|-7-7*--7-7-7*----------3--3--3--5--5--5--|
D|--7-7*--7-7-7*--5-5-5*--2-2-2*--|-7-7*--7-7-7*--5-5-5*--3--3--3--5--5--5--|
A|--5-5*--5-5-5*--5-5-5*--0-0-0*--|-5-5*--5-5-5*--5-5-5*--1--1--1--3--3--3--|
E|----------------3-3-3*----------|---------------3-3-3*--------------------|


Chorus:
e|------------------------|
B|------------------------|
G|---------------------5--|
D|--3----3-3-----------5--|
A|--3----3-3-----------3--|
E|--1----1-1--------------|
    Ven, quiero oír tu voz...

e|-----------------------|
B|-----------------------|
G|------5-5----------7---|
D|------5-5----------7---|
A|------3-3----------5---|
E|-----------------------|
  Y si aún nos queda amor...

e|-----------------------------|
B|-----------------------------|
G|--7-7---------------3----5---|
D|--7-7---------------3----5---|
A|--5-5---------------1----3---|
E|-----------------------------|
        Impidamos que esto muera...

e|-----------------------------|
B|-----------------------------|
G|--------------------------5--|
D|--3----3-3----------------5--|
A|--3----3-3----------------3--|
E|--1----1-1-------------------|
    Ven, pues en tu interior...

e|----------------------|
B|----------------------|
G|--5-5-------------7---|
D|--5-5-------------7---|
A|--3-3-------------5---|
E|----------------------|
    Esta la solución...

e|---------------------------|
B|---------------------------|
G|---7-7----------3------5---|
D|---7-7----------3------5---|
A|---5-5----------1------3---|
E|---------------------------|
  De salvar lo bello que queda...

Play two times
e|----------------------------------------------------------------|
B|----------------------------------------------------------------|
G|--------5-5-5*--7-7-7*--5-5-5*--3-3-3*----------3-3-3*--5-5-5*--|
D|--3-3*--5-5-5*--7-7-7*--5-5-5*--3-3-3*--3-3-3*--3-3-3*--5-5-5*--|
A|--3-3*--3-3-3*--5-5-5*--3-3-3*--1-1-1*--3-3-3*--1-1-1*--3-3-3*--|
E|--1-1*----------------------------------1-1-1*------------------|

Play over the violins:

e|-------------------------------|---------------------------------|
B|-------------------------------|---------------------------------|
G|--------5-5-5*--7-7-7*--2-2-2*-|--3-3*--5-5-5*--7-7-7*--7-7-7*---|
D|--3-3*--5-5-5*--7-7-7*--2-2-2*-|--3-3*--5-5-5*--7-7-7*--7-7-7*---|
A|--3-3*--3-3-3*--5-5-5*--0-0-0*-|--1-1*--3-3-3*--5-5-5*--5-5-5*---|
E|--1-1*-------------------------|---------------------------------|

e|-------------------------------|---------------------------------|
B|-------------------------------|---------------------------------|
G|--------5-5-5*--7-7-7*--2-2-2*-|--3-3*--5-5-5*--7~---------------|
D|--3-3*--5-5-5*--7-7-7*--2-2-2*-|--3-3*--5-5-5*--7~---------------|
A|--3-3*--3-3-3*--5-5-5*--0-0-0*-|--1-1*--3-3-3*--5~---------------|
E|--1-1*-------------------------|---------------------------------|

Bridge:

 PM.....................................................................
e|--------------------|--------------------------|---------------------|
B|--------------------|--------------------------|---------------------|
G|--7--7-7--7-7--7-7--|---0---0-0---0-0---0-0----|---------------------|
D|--7--7-7--7-7--7-7--|---2---2-2---2-2---2-2----|---3--3-3--3-3--3-3--|
A|--5--5-5--5-5--5-5--|---2---2-2---2-2---2-2----|---3--3-3--3-3--3-3--|
E|--------------------|---0---0-0---0-0---0-0----|---1--1-1--1-1--1-1--|
Hagamos una revolución, que nuestro líder sea el sol y nuestro ejército sean

PM.........................
e|-----------|------------|
B|-----------|------------|
G|-3--3-3-3--|--5--5-5-5--|
D|-3--3-3-3--|--5--5-5-5--|
A|-1--1-1-1--|--3--3-3-3--|
E|-----------|------------|
     Mariposas...

 PM.....................................................................
e|--------------------|--------------------------|---------------------|
B|--------------------|--------------------------|---------------------|
G|--7--7-7--7-7--7-7--|---0---0-0---0-0---0-0----|---------------------|
D|--7--7-7--7-7--7-7--|---2---2-2---2-2---2-2----|---3--3-3--3-3--3-3--|
A|--5--5-5--5-5--5-5--|---2---2-2---2-2---2-2----|---3--3-3--3-3--3-3--|
E|--------------------|---0---0-0---0-0---0-0----|---1--1-1--1-1--1-1--|
Por bandera otro amanecer y por conquista comprender que hay que cambiar las

PM.........................
e|-----------|------------|
B|-----------|------------|
G|-3--3-3-3--|--5--5-5-5--|
D|-3--3-3-3--|--5--5-5-5--|
A|-1--1-1-1--|--3--3-3-3--|
E|-----------|------------|
 Espadas por rosas...


 PM.....................................................................
e|--------------------|--------------------------|---------------------|
B|--------------------|--------------------------|---------------------|
G|--7--7-7--7-7--7-7--|---0---0-0---0-0---0-0----|---------------------|
D|--7--7-7--7-7--7-7--|---2---2-2---2-2---2-2----|---3--3-3--3-3--3-3--|
A|--5--5-5--5-5--5-5--|---2---2-2---2-2---2-2----|---3--3-3--3-3--3-3--|
E|--------------------|---0---0-0---0-0---0-0----|---1--1-1--1-1--1-1--|
Ah!, mientras te quede aliento, ve a buscar con el viento, ayuda, pues apenas

PM.........................
e|-----------|------------|
B|-----------|------------|
G|-3--3-3-3--|--5--5-5-5--|
D|-3--3-3-3--|--5--5-5-5--|
A|-1--1-1-1--|--3--3-3-3--|
E|-----------|------------|
   Queda tiempo...

PM.....................................................................
e|--------------------|--------------------------|---------------------|
B|--------------------|--------------------------|---------------------|
G|--7--7-7--7-7--7-7--|---0---0-0---0-0---0-0----|---------------------|
D|--7--7-7--7-7--7-7--|---2---2-2---2-2---2-2----|---3--3-3--3-3--3-3--|
A|--5--5-5--5-5--5-5--|---2---2-2---2-2---2-2----|---3--3-3--3-3--3-3--|
E|--------------------|---0---0-0---0-0---0-0----|---1--1-1--1-1--1-1--|
¡Ven quiero oír tu voz y si aún nos queda amor, impidamos que

e|--------------|
B|--------------|
G|-3--3---5--5--|
D|-3--3---5--5--|
A|-1--1---3--3--|
E|--------------|
   Esto muera!

Chorus:
e|------------------------|
B|------------------------|
G|---------------------5--|
D|--3----3-3-----------5--|
A|--3----3-3-----------3--|
E|--1----1-1--------------|
    Ven, quiero oír tu voz...

e|-----------------------|
B|-----------------------|
G|------5-5----------7---|
D|------5-5----------7---|
A|------3-3----------5---|
E|-----------------------|
  Y si aún nos queda amor...

e|-----------------------------|
B|-----------------------------|
G|--7-7---------------3----5---|
D|--7-7---------------3----5---|
A|--5-5---------------1----3---|
E|-----------------------------|
        Impidamos que esto muera...

e|-----------------------------|
B|-----------------------------|
G|--------------------------5--|
D|--3----3-3----------------5--|
A|--3----3-3----------------3--|
E|--1----1-1-------------------|
    Ven, pues en tu interior...

e|----------------------|
B|----------------------|
G|--5-5-------------7---|
D|--5-5-------------7---|
A|--3-3-------------5---|
E|----------------------|
    Esta la solución...

e|---------------------------|
B|---------------------------|
G|---7-7----------3------5---|
D|---7-7----------3------5---|
A|---5-5----------1------3---|
E|---------------------------|
  De salvar lo bello que queda...

Play two times
e|----------------------------------------------------------------|
B|----------------------------------------------------------------|
G|--------5-5-5*--7-7-7*--5-5-5*--3-3-3*----------3-3-3*--5-5-5*--|
D|--3-3*--5-5-5*--7-7-7*--5-5-5*--3-3-3*--3-3-3*--3-3-3*--5-5-5*--|
A|--3-3*--3-3-3*--5-5-5*--3-3-3*--1-1-1*--3-3-3*--1-1-1*--3-3-3*--|
E|--1-1*----------------------------------1-1-1*------------------|
  Ahhhh....


Well, this is basically it. Hope you enjoy it!!
-Damien Savage

Any doubts or comments, my email is punko_rockero@hotmail.com
Добавлено: 23.04.2012
Другие материалы по этой песне:

Страница создана 30.03.2012
http://primanota.ru/mago-de-oz/la-costa-del-silencio-chords.htm
Привет, Гость.
Предлагаем пройти революционный курс по гитаре.
Подарок от PrimaNota.Ru, забирай!