PrimaNota.ru - самый крупный в мире бесплатный архив песенных текстов, аккордов, табулатур и нот


Mago De Oz - Gaia - текст песни, таба, видео

Регистрация Запомнить меня
Войти через:  Facebook Google Twitter Vk Yandex Mail.ru

Mago De Oz - Gaia - текст песни, таба, видео

Печатать
Просмотров: 159
00:00] intro de piano (adaptacion Para guitarra 2)
-------3~----------3~------------|
---3-4---------3-4---------------|
-5-----------5-------------------|
---------------------------------|
---------------------------------|
---------------------------------|

[00:09]todo esto se repite X2
-------3-------------3-------|
---3-4-----------3-4---3-----|
-5-------5-----5-------------|
--------------5--------------|
-----------------------------|
-----------------------------|

--3-1------------------3-----|
-3----4-3----------3-4---3---|
----------5------5-----------|
---------------5-------------|
-----------------------------|
-----------------------------|

-----------6-6---------------|
-3-3--7-7--------------------|
-----------------------------|
-----------------------------|
-----------------------------|
-----------------------------|

[00:47]
Se repite lo del piano([00:09])

hay veces que ni se si exprimir el sol para sentir calor
y dudo que al nacer llegara a creer que hoy fuera a morir

 [01:13]
 Cm             A#              Cm             A#
-------8--------------6---------------8--------------10-|
---6-8------6-8-----6--------6----6-8------6-8------11~-|
-8--------8-----7-8------7-8----8--------8-----7---10~--|
--------------------------------------------------------|
--------------------------------------------------------|
--------------------------------------------------------|
 na na na nan na na da...


 [01:33] guitarra c/ distorsion
 A#
------------------------|
------------------------|
------------------------|
------------------------|
-8--8--8--8--8--8--8--8-|
-6--6--6--6--6--6--6--6-|
 ooooooohhhh!!!

 [01:37]
-------------------------------------------------|
-------------------------------------------------|
-------------------------------------------------|
----------7-8-12----------7-8-12-------12-10-8-7-|
-10~---10-5-6-10-10~---10-5-6-10-8~----10--8-6-5-|
--8~----8---------8~----8--------6~--------------|

-------------------------------------|
-------------------------------------|
-------------------------------------|
----------7-8-12---------------------|
-10~---10-5-6-10-8--8-8--8-8--8-8--8-|
--8~----8--------6--6-6--6-6--6-6--6-|

 [02:12] primer solo de guitarra
             Cm                                  A#
-----------------------------------------------------|
-------------------------8-----------------8---------|
-------5-5h7-5~----5-7-8---5-4tr5---5-7--8---8-8/10v-|
---5-8-----------8-----------------------------------|
-8---------------------------------------------------|
-----------------------------------------------------|
                                Cm
------------------------------------------------------|
------------------------------------------------------|
-10/12--10-8-10--8-7-8-7------------------------------|
-------------------------10-8-8h10--10-8----8---------|
-----------------------------------------10---10-8-10-|
------------------------------------------------------|
              A#                        Cm
------------------------------------------6--------6-|
-------------------------------------6-/8---6h8--8---|
------------5-5/7--5---5v--------5-7-----------------|
----------8----------8-----8-5-8---------------------|
-8-10-8-6--------------------------------------------|
-----------------------------------------------------|
                                           A#
---------6-----6----------------------8--8/10--10v---|
-6h8---8---6h8---6h8-6-------6---8-11----------------|
-----------------------8-7-8-------------------------|
-----------------------------------------------------|
-----------------------------------------------------|
-----------------------------------------------------|
                                        Cm
-15-------13-------11--------------------------------|
----15-11----13-11----11----11-------11-11h13--11/13-|
-------------------------12----10--------------------|
----------------------------------12-----------------|
-----------------------------------------------------|
-----------------------------------------------------|
                         A#
----10-11-11-10----------10h11----10-8h10~---8----11-|
-13-------------13p11-13-----------------------------|
-----------------------------------------------------|
-----------------------------------------------------|
-----------------------------------------------------|
-----------------------------------------------------|

-10-8------------------|
------11-8-------------|
-----------10-8-7-????-|
-----------------------|
-----------------------|
-----------------------|

 [02:57] violin
 B                    A      B                      D
-10--10-10--10----7-9-7------10--10-10--10--12-10-9-----|
---------------10-------10-7------------------------10~-|
--------------------------------------------------------|
--------------------------------------------------------|
--------------------------------------------------------|
--------------------------------------------------------|

 B                    A      D          E
-10--10-10--10----7-9-7------7--7-7--7------------------|
---------------10-------10-7------------10-9-7---7-9----|
-----------------------------------------------9--------|
--------------------------------------------------------|
--------------------------------------------------------|
--------------------------------------------------------|

 [03:10]
 B           E           A           F#m
-------------------------------------------------|
-------------------------------------------------|
-------------------------------------------------|
-------------------------------------------------|
-9-----------7-----------7-----------4-----------|
-7-----------4-----------5-----------2-----------|

 [03:24] se repite parte de violin, pero cambia el final
                          x3
-14-10-12----10-----------|-10-9---------------|
----------14----12-14-10--|------10-12---------|
--------------------------|--------------------|
--------------------------|--------------------|
--------------------------|--------------------|
--------------------------|--------------------|

 [03:41] versos
 B                       A           B    D E
-------------------------------------------------|
-------------------------------------------------|
-------------------------------------------------|
------------------------------------------7-9----| x2
-9-----------------------7-----------9----5-7----|
-7-----------------------5-----------7-----------|
donde se vende algo de compasión para zafiar mi soledad
donde trafican con sueños de amor pues quiero esta angustia dormir

 D           A           D           A
-------------------------------------------------|
-------------------------------------------------|
-------------------------------------------------|
-7-----------------------7-----------------------|
-5-5-5-5-5-5-7-----------5-5-5-5-5-5-7-----------|
-------------5-5-5-5-5-5-------------5-5-5-5-5-5-|
recuerdo el dia en que mi libertad no tenia precio ni fin

 D           E           F#m
-------------------------------------------------|
-------------------------------------------------|
-------------------------------------------------|
-7-----------------------------------------------|
-5-5-5-5-5-5-2-----------4-----------------------|
-------------0-0-0-0-0-0-2-2-2-2-2-2-2-2-2-2-2-2-|
en cambio hoy daba hasta la eternidad por ver mañana el sol salir

 [04:08] coro
 B                                   B     D
-------------------------------------------------|
-------------------------------------------------|
-------------------------------------------------|
-------------------------------------------7.-7--| x2
-9-----------9-----------9-----------9.-9--5.-5--|
-7-7-7-7-7-7-7-7-7-7-7-7-7-7-7-7-7-7-7.-7--------|
me vengare y todo mal que me hagas yo te lo devolvere
el hombre nunca fue dueño de Gaia, es justamente al reves!

 [04:22]
-5---------------------------------5----------5--7--5--|
-----8-7-8---7-5-7--8--7--5------------8-7-8-----------|
-----------------------------6-------------------------|
-------------------------------------------------------|
-------------------------------------------------------|
-------------------------------------------------------|

-5-----------------------------------------------------|
-----8-7-8---7-5-7--8--7--5----------5--7--5-----------|
-----------------------------6----7-----------7--6-<4>-|
-------------------------------------------------------|
-------------------------------------------------------|
-------------------------------------------------------|

 [04:36] se repiten versos:

oigo unos pasos se quiebra mi voz se que vienen a por mi
y un sacerdote en nombre de Dios pregunta quieres confesión
'confieso que ame y crei en un Dios de los pobres, justo y moral
confieso que en la silla donde he de morir mi alma renacerá'

 [05:03] se repite coro

 [05:17] se repite parte de violin

 [05:38]
 B           E           A           F#m
-------------------------------------------------|
-------------------------------------------------|
-------------------------------------------------|
-------------------------------------------------|
-9-----------7-----------7-----------4-----------|
-7-----------4-----------5-----------2-----------|

 [05:58] solo. la base: B B E F# B B D C# B B E F# D C# B B
                        E E A B  E E G F# E E A B  G F# E E  B... E...

 [06:26] solo de teclado

 [07:45] solo se repite el acorde B muchas veces

 [08:30] se repite final de parte de violin
                          x3
-14-10-12----10-----------|-10-9---------------|
----------14----12-14-10--|------10-12---------|
--------------------------|--------------------|
--------------------------|--------------------|
--------------------------|--------------------|
--------------------------|--------------------|

 [08:35] se repiten versos:

toda mi vida desfila ante mi tantos sueños por cumplir
no tengas miedo no llores por mi siempre estare junto a ti
oigo los rezos intento gritar me cubren para no mirar
los ojos de una cruel humanidad la muerte se excita hacia el fin

 [09:03] se repite coro x2, cambia el final (me da flojera ponerlo
                                             como tablatura)
                   B                         E
es justamente al reves....es justamente al reves....
                   G        A     A.
es justamente al reveeeeeeeees....

 [09:44]
-----------------------------------------------------|
-----------------------------------------------------|
-----------------------------------------------------|
----------9-10-14----------9-10-14--------14-12-10-9-|
-12~---12-7--8-12-12~---12-7--8-12-10~----12-10--8-7-|
-10~---10---------10~---10----------8~---------------|

------------------------------|
------------------------------|
------------------------------|
----------9-10-14-------------|
-12~---12-7--8-12-10~---------|
-10~---10----------8~---------|

 [10:19]
-----------------------------------------------------|
-----------------------------------------------------|
-----------------------------------------------------|
-9~---9-11-12-16-9~---9-11-12-16--------16-14-12-11--|
-7~---7--9-10-14-7~---7--9-10-14-12~----14-12-10-9---|
---------------------------------10~-----------------|

------------------------------|
------------------------------|
------------------------------|
-9~---9-11-12-16--7----8--9.--|
-7~---7--9-10-14--5----6--7.--|
------------------------------|

 [10:42]
 Em                    D                      Em             D
----------12--------------------10--------------------12-----------------|
----10-12--------10-12-------10-----------10----10-12--------10-12-------|
-12-----------12-------11-12--------11-12----12-----------12-------11~---|
-------------------------------------------------------------------------|
-------------------------------------------------------------------------|
-------------------------------------------------------------------------|
Добавлено: 02.07.2012
Другие материалы по этой песне:

Страница создана 02.05.2012
http://primanota.ru/mago-de-oz/gaia-chords.htm
Привет, Гость.
Предлагаем пройти революционный курс по гитаре.
Подарок от PrimaNota.Ru, забирай!