PrimaNota.ru - самый крупный в мире бесплатный архив песенных текстов, аккордов, табулатур и нот


Mago De Oz - El Principe De La Dulce Pena - текст песни, таба, видео

Регистрация Запомнить меня
Войти через:  Facebook Google Twitter Vk Yandex Mail.ru

Mago De Oz - El Principe De La Dulce Pena - текст песни, таба, видео

Печатать
Просмотров: 113
Pues he aqui la tab, si desean escuchar el audio
de la pista lo encontraran en la pagina de abajo.


El Principe de la Dulce Pena


Mägo De Oz

Visiten www.redtabs.es.tl



     ^ v ^ v ^ v ^ v
E||--0-0-0-0-0-0-0-0-0------------|
B||--0-0-0-0-0-0-0-0-0------------|
G||--2-2-2-2-2-2-2-2-2------------|
D||--3-3-3-3-3-3-3-3-3------------|
A||--3-3-3-3-3-3-3-3-3------------|
E||--0-0-0-0-0-0-0-0-0------------|


  ^ v ^ v ^ v ^ v ^ v ^ v ^ v ^ v ^
--0-0-0-0-0-0-0-0-0-0-0-0-0-0-0-0-0--------|
--0-0-0-0-0-0-0-0-0-0-0-0-0-0-0-0-0--------|
--2-2-2-2-2-2-2-2-2-2-2-2-2-2-2-2-2--------|
--3-3-3-3-3-3-3-3-3-3-3-3-3-3-3-3-3--------|
--3-3-3-3-3-3-3-3-3-3-3-3-3-3-3-3-3--------|
--0-0-0-0-0-0-0-0-0-0-0-0-0-0-0-0-0--------|


                                         ^
--L--------|--0-----------------------|--0----0-----------------|
--L--------|---------3-2--0-----0-2-3-|---------3--3-2--0--0----|
--L--------|--2---------------2-------|--2----------------------|
--L--------|--3-----------------------|--3----------------------|
--L--------|--3-----------------------|--3----------------------|
--L--------|--1--------0--------------|--1-----------0----------|


  ^                                ^
--0----0------------------------|--0----0-----------------|
---------3--3-2--3----0-2---0-2-|---------3--3-2--0--0----|
--2-----------------2-----2-----|--2----------------------|
--3-----------------------------|--3----------------------|
--3-----------------------------|--3----------------------|
--1-----------0-----------------|--1-----------0-----L----|



----------------------------------|---------------------------|
--0-0--0--------------------------|--0-0--L-------------------|
---------2--2-1-----------1-----1-|---------2--2-1------------|
-----------------2--L-2-3---2-3---|-----------------2--2----L-|
----------------------------------|---------------------------|
--1-----------0-------------------|--1-----------0------------|



----------------------------------|----0---0---0---0--------------|
--0-0-----------------------------|--0----------------------------|
------2-2-1-1-----2-1---------1-2-|------2---1-------2-1----------|
--------------3-3-----3-2-2-3-----|--------------3-------3-2-L----|
----------------------------------|-------------------------------|
--1---------------0---------------|--1---------------0------------|


                                                        ^ v ^ v ^
----------------------------------|----0---0---0---0----0-0-0-0-0--------|
--0-0-----------------------------|--0------------------0-0-0-0-0--------|
------2-2-1-1-----2-1---------1-2-|------2---1----------1-1-1-1-1--------|
--------------3-3-----3-2-2-3-----|--------------3---2--2-2-2-2-2--------|
----------------------------------|---------------------2-2-2-2-2--------|
--1---------------0---------------|--1---------------0--0-0-0-0-0--------|



--------4-5-4-------------------------4h-5p-4h-5p-4h-5p-4h-5-|
--5-5-6-0-----6-5h-6p-5h-6p-5h-6-5h-6------------------------|
-------------------------------------------------------------|
-------------------------------------------------------------|
-------------------------------------------------------------|
--------------0----------------------------------------------|



--7-------------7-8-7--------------|-------------|
----------9-----------10-9-10-9----|-------------|
-----9------9-------------------10-|--9S----x----|
-------9------9--------------------|-------------|
-----------------------------------|-------------|
--0-------------0--------0---------|--0----------|



---------------------------------|---------------------------------|
----------0--------------0-------|----------0--------------0-------|
--------2---2----------1---1-----|--------2---2----------1---1-----|
------3-------3------2-------2---|------3-------3------2-------2---|
----3--------------2-----------2-|----3--------------2-----------2-|
--1-------------0----------------|--1-------------0----------------|



---------------------------------|---------------------------------|
----------0--------------0-------|----------0--------------0-------|
--------2---2----------1---1-----|--------2---2----------1---1-----|
------3-------3------2-------2---|------3-------3------2-------2---|
----3--------------2-----------2-|----3--------------2-----------2-|
--1-------------0----------------|--1-------------0----------------|



---------------------------------|---------------------------------|
----------0--------------0-------|----------0--------------0-------|
--------2---2----------1---1-----|--------2---2----------1---1-----|
------3-------3------2-------2---|------3-------3------2-------2---|
----3--------------2-----------2-|----3--------------2-----------2-|
--1-------------0----------------|--1-------------0----------------|



---------------------------------|---------------------------------|
----------0--------------0-------|----------0--------------0-------|
--------2---2----------1---1-----|--------2---2----------1---1-----|
------3-------3------2-------2---|------3-------3------2-------2---|
----3--------------2-----------2-|----3--------------2-----------2-|
--1-------------0----------------|--1-------------0----------------|




---------------------------------|---------------------------------|
----------0--------------0-------|----------0--------------0-------|
--------2---2----------1---1-----|--------2---2----------1---1-----|
------3-------3------2-------2---|------3-------3------2-------2---|
----3--------------2-----------2-|----3--------------2-----------2-|
--1-------------0----------------|--1-------------0----------------|



---------------------------------|---------------------------------|
----------0--------------0-------|----------0--------------0-------|
--------2---2----------1---1-----|--------2---2----------1---1-----|
------3-------3------2-------2---|------3-------3------2-------2---|
----3--------------2-----------2-|----3--------------2-----------2-|
--1-------------0----------------|--1-------------0----------------|



----------4-5-4-9-7-------------|--7-8-7-----------------------|
----5-5-6-0---------------------|--------10-9-10-9-------------|
--------------------------9-----|------------------10-9--------|
---------------------9------9---|------------------------------|
--L--------------------7------7-|------------------------------|
------------------0-------------|--0--------0---------0--------|


  Agresivo

----------------------------------------|-------------------------------|
----------------------------------------|-------------------------------|
----------------------------------------|-------------------------------|
----------------------------------------|-------------------------------|
-----------2-2-2-0-0-----0--------------|------0-0----------------------|
--0------------------1-1---4-1-0--0-1-4-|--0-0-----4--1--4g5-4-1-0----L-|


                             ^
--0-----------------------|--0----0-----------------|
---------3-2--0---L---0-2-|---------3--3-2--0--0----|
--2-----------------2-----|--2----------------------|
--3-----------------------|--3----------------------|
--3-----------------------|--3----------------------|
--1--------0--------------|--1-----------0----------|


  ^                                ^
--0----0------------------------|--0----0----------------|
---------3--3-2--3----0-2---0-2-|---------3--3-2--0------|
--2-----------------2-----2-----|--2---------------------|
--3-----------------------------|--3---------------------|
--3-----------------------------|--3---------------------|
--1-----------0-----------------|--1-----------0---------|



--------------------0-----0-----|----------------------------|
----------------------0-----0---|----------------------------|
------------------------1-----1-|--L-------------------------|
--------------------------------|----------------------------|
----------0---------------------|---------------0---0-2-L----|
--0-0-1-4---4-1-0---------------|-------0-0-1-4---4----------|



--7--------------------------------------------------------------||
----10-9-10-9----9-----------------------------------------------||
--------------10---10-9----------9-10-9----------9-10-10-L----L--||
------------------------11-10-11--------11-10-11-----------------||
-----------------------------------------------------------------||
-----------------------------------------------------------------||




Duration Legend
---------------
W - whole
H - half
Q - quarter
E - 8th
S - 16th
T - 32nd
X - 64th
. - note dotted
|-n-|  - n-tuplets


Tablature Legend
----------------
L - tied note
x - dead note
g - grace note
(n) - ghost note
> - accentuded note
NH - natural harmonic
AH - artificial harmonic
TH - tapped harmonic
SH - semi harmonic
PH - pitch harmonic
h - hammer on
p - pull off
b - bend
br - bendRelease
pb - preBend
pbr - preBendRelease
brb - bendReleaseBend
n/ - tremolo bar dip
n - tremolo bar dive
-/n - tremolo bar Release up
/n - tremolo bar inverted dip
/n - tremolo bar return
-n - tremolo bar Release down
S - shift slide
s - legato slide
/ -  slide into from below or out of upwards
 -  slide into from above or out of downwards
~ - vibrato
W - wide vibrato
tr - trill
TP - tremolo picking
T - tapping
S - slap
P - pop
< - fade in
^ - brush up
v - brush down

Добавлено: 27.05.2012
Другие материалы по этой песне:

Страница создана 17.05.2012
http://primanota.ru/mago-de-oz/el-principe-de-la-dulce-pena-chords.htm
Привет, Гость.
Предлагаем пройти революционный курс по гитаре.
Подарок от PrimaNota.Ru, забирай!