PrimaNota.ru - самый крупный в мире бесплатный архив песенных текстов, аккордов, табулатур и нот


Magnetic Fields - Josephine - текст песни, таба, видео

Регистрация Запомнить меня
Войти через:  Facebook Google Twitter Vk Yandex Mail.ru

Magnetic Fields - Josephine - текст песни, таба, видео

Печатать
Просмотров: 62
-------------------------------------------------------------------------------
                             JOSEPHINE - Magnetic Fields
-------------------------------------------------------------------------------


Tuning: Standard

e|-------------------------------------|
B|-------------------------------------|
G|-------------------------------4-----|
D|----------4-----------------4--------|
A|-----2-------2-----0-----0-----------|
E|--0-----0-------4-----2-------------=|

If I were Napoleon, you could be my Josephine
We could go to drive-in films in my red convertible
If I were Napoleon, I might be in magazines
I'd write some science fiction - science fiction about 
you
You could be my Josephine: just you and your chaperone
Let you be my Josephine, Josephine
If I were Napoleon, you could be my lady love
Look into my soft blue eyes
Run your fingers through my hair
If I were Napoleon, you could be my turtle-dove 
Living out in Corsica in our summer cottages 
And you could be my Josephine and we could be Siamese 
twins
Let you be my Josephine, Josephine


************************************

| /   slide up
| \   slide down
| h   hammer-on
| p   pull-off
| ~   vibrato
| +   harmonic
| x   Mute note
| b   Bend
| pb  Pre-bend
| br  Bend release
| pbr Pre-bend release
| brb Bend release bend

************************************
Добавлено: 20.08.2015
Другие материалы по этой песне:
  • Аккорды и текст

Страница создана 10.05.2012
http://primanota.ru/magnetic-fields/josephine-chords.htm
Привет, Гость.
Предлагаем пройти революционный курс по гитаре.
Подарок от PrimaNota.Ru, забирай!