PrimaNota.ru - самый крупный в мире бесплатный архив песенных текстов, аккордов, табулатур и нот


Magna-fi - Fall From Grace - таба, видео

Регистрация Запомнить меня
Войти через:  Facebook Google Twitter Vk Yandex Mail.ru

Magna-fi - Fall From Grace - таба, видео

Печатать
Просмотров: 86
Fall from Grace – Magna-Fi
Tuning – Drop D
P= Palm Mute
p= Pull off
Intro
Guitar 1 – Quiet, low bass
               (The 10 is played with the 8 bar chord, just trying to make it clearer)
e | ----------------------------------------------------------|
B|------------------------------------------------------------|
G|--33333333-55555555-77777777-10,10,10,10,10,10,10,10--------|
D|--11111111-33333333-55555555-88888888-----------------------|
A|--11111111-33333333-55555555-88888888-----------------------|
D|--11111111-33333333-55555555-88888888-----------------------|

e | ----------------------------------------------------------|
B|------------------------------------------------------------|
G|--33333333-55555555-77777777-10,10,10,10,10,10,10,10--------|
D|--11111111-33333333-55555555-88888888-----------------------|
A|--11111111-33333333-55555555-88888888-----------------------|
D|--11111111-33333333-55555555-88888888-----------------------|

Verse

Guitar 1 – More bass

e | ----------------------------------------------------------|
B|------------------------------------------------------------|
G|--33333333-55555555-77777777-10,10,10,10,10,10,10,10--------|
D|--11111111-33333333-55555555-88888888-----------------------|
A|--11111111-33333333-55555555-88888888-----------------------|
D|--11111111-33333333-55555555-88888888-----------------------|

e | ----------------------------------------------------------|
B|------------------------------------------------------------|
G|--33333333-55555555-77777777-10,10,10,10,10,10,10,10--------|
D|--11111111-33333333-55555555-88888888-----------------------|
A|--11111111-33333333-55555555-88888888-----------------------|
D|--11111111-33333333-55555555-88888888-----------------------|
                                                (So much for….)
e | -------------------------------|------------------------------|
B|--------------------------------|-------------------------------|
G|--3--------33-333-33--------|----33-333-33----------------------|
D|--1--------11-111-11--------|----11-111-11----------------------|
A|--1--------11-111-11--------|----11-111-11----------------------|
D|--1--------11-111-11--------|----11-111-11----------------------|

Guitar 2 – Lead

e |--------------------------------------------------------|
B|---------------------------------------------------------|
G|12-11---12-----12-11---12-----12-11----------------------|
D|--------------10---------------10--------10--------------|
A|---------------------------------------------------------|
D|---------------------------------------------------------|

e |--------------------------------------------------------|
B|---------------------------------------------------------|
G|12-11---12-----12-11---12-----12-11----------------------|
D|--------------12---------------12--------12--------------|
A|---------------------------------------------------------|
D|---------------------------------------------------------|

e |--------------------------------------------------------|
B|---------------------------------------------------------|
G|12-11---12-----12-11---12-----12-11----------------------|
D|--------------10---------------10--------10--------------|
A|---------------------------------------------------------|
D|---------------------------------------------------------|

e |--------------------------------------------------------|
B|---------------------------------------------------------|
G|16-14---16-----16-14---16-----16-14----------------------|
D|--------------17---------------17--------17--------------|
A|---------------------------------------------------------|
D|---------------------------------------------------------|

Pre-Chorus
       PP-PP-P         PP-PP-P         PP-PP-P-------------|      PP-PP-P
e |--------------------------------------------------------|
B|---------------------------------------------------------|
G|--33-33-3-8---8-33-33-3-5---5-33-33-3-8--8-11-11-1-10-10-|
D|--11-11-1-6---6-11-11-1-3---3-11-11-1-6--6-11-11-1-8-8---|
A|--11-11-1-6---6-11-11-1-3---3-11-11-1-6--6-11-11-1-8-8---|
D|--11-11-1-6---6-11-11-1-3---3-11-11-1-6--6-11-11-1-8-8---|

e |----------------|
B|-----------------|
G|--55-55-55-------|
D|--33-33-33-------|
A|--33-33-33-------|
D|--33-33-33-------|

Chorus


e | ----------------------------------------------------------|
B|------------------------------------------------------------|
G|--33333333-55555555-77777777-10,10,10,10,10,10,10,10--------|
D|--11111111-33333333-55555555-88888888-----------------------|
A|--11111111-33333333-55555555-88888888-----------------------|
D|--11111111-33333333-55555555-88888888-----------------------|

e | ----------------------------------------------------------|
B|------------------------------------------------------------|
G|--33333333-55555555-77777777-10,10,10,10,10,10,10,10--------|
D|--11111111-33333333-55555555-88888888-----------------------|
A|--11111111-33333333-55555555-88888888-----------------------|
D|--11111111-33333333-55555555-88888888-----------------------|


Guitar 2 – Lead

e |--------------------------------------------------------|
B|---------------------------------------------------------|
G|12-11---12-----12-11---12-----12-11----------------------|
D|--------------10---------------10--------10--------------|
A|---------------------------------------------------------|
D|---------------------------------------------------------|

e |--------------------------------------------------------|
B|---------------------------------------------------------|
G|12-11---12-----12-11---12-----12-11----------------------|
D|--------------12---------------12--------12--------------|
A|---------------------------------------------------------|
D|---------------------------------------------------------|

e |--------------------------------------------------------|
B|---------------------------------------------------------|
G|12-11---12-----12-11---12-----12-11----------------------|
D|--------------10---------------10--------10--------------|
A|---------------------------------------------------------|
D|---------------------------------------------------------|

e |--------------------------------------------------------|
B|---------------------------------------------------------|
G|16-14---16-----16-14---16-----16-14----------------------|
D|--------------17---------------17--------17--------------|
A|---------------------------------------------------------|
D|---------------------------------------------------------|

Verse

                                                (Full of empty…)
e | -------------------------------|------------------------------|
B|--------------------------------|-------------------------------|
G|--3--------33-333-33--------|----33-333-33----------------------|
D|--1--------11-111-11--------|----11-111-11----------------------|
A|--1--------11-111-11--------|----11-111-11----------------------|
D|--1--------11-111-11--------|----11-111-11----------------------|

Pre-Chorus
       PP-PP-P         PP-PP-P         PP-PP-P---------------------|      PP-PP-P
e |----------------------------------------------------------------|
B|------------------------------------------------6--6--6--6--6--6-|
G|--33-33-3-7---7-33-33-3-1010-33-33-3-3--3--3--3--3--3------------|
D|--11-11-1-5---5-11-11-1-8---8-11-11-1-3--3--3--3--3--3-----------|
A|--11-11-1-5---5-11-11-1-8---8-11-11-1-3--3--3--3--3--3-----------|
D|--11-11-1-5---5-11-11-1-8---8-11-11-1----------------------------|

PP-PP-P         PP-PP-P         PP-PP-P----------------------|      PP-PP-P
e |----------------------------------------------------------|
B|-----------------------------------------------------------|
G|--33-33-3-7---7-33-33-3-10-10-33-33-3-5-5—5-55-55-55-55----|
D|--11-11-1-5---5-11-11-1-8---8-11-11-1-3--3—3-33-33-33-33---|
A|--11-11-1-5---5-11-11-1-8---8-11-11-1-3--3—3-33-33-33-33---|
D|--11-11-1-5---5-11-11-1-8---8-11-11-1-3--3---3-33-33-33-33-|

Chorus
Guitar 1
e | ----------------------------------------------------------|
B|------------------------------------------------------------|
G|--33333333-55555555-77777777-10,10,10,10,10,10,10,10--------|
D|--11111111-33333333-55555555-88888888-----------------------|
A|--11111111-33333333-55555555-88888888-----------------------|
D|--11111111-33333333-55555555-88888888-----------------------|

e | ----------------------------------------------------------|
B|------------------------------------------------------------|
G|--33333333-55555555-77777777-10,10,10,10,10,10,10,10--------|
D|--11111111-33333333-55555555-88888888-----------------------|
A|--11111111-33333333-55555555-88888888-----------------------|
D|--11111111-33333333-55555555-88888888-----------------------|

e | ----------------------------------------------------------|
B|------------------------------------------------------------|
G|--33333333-55555555-77777777-10,10,10,10,10,10,10,10--------|
D|--11111111-33333333-55555555-88888888-----------------------|
A|--11111111-33333333-55555555-88888888-----------------------|
D|--11111111-33333333-55555555-88888888-----------------------|

e | ----------------------------|
B|------------------------------|
G|--33333333-55555555-----------|
D|--11111111-33333333-----------|
A|--11111111-33333333-----------|
D|--11111111-33333333-----------|

Guitar 2

e |--------------------------------------------------------|
B|---------------------------------------------------------|
G|12-11---12-----12-11---12-----12-11----------------------|
D|--------------10---------------10--------10--------------|
A|---------------------------------------------------------|
D|---------------------------------------------------------|

e |--------------------------------------------------------|
B|---------------------------------------------------------|
G|12-11---12-----12-11---12-----12-11----------------------|
D|--------------12---------------12--------12--------------|
A|---------------------------------------------------------|
D|---------------------------------------------------------|

e |--------------------------------------------------------|
B|---------------------------------------------------------|
G|12-11---12-----12-11---12-----12-11----------------------|
D|--------------10---------------10--------10--------------|
A|---------------------------------------------------------|
D|---------------------------------------------------------|

e |--------------------------------------------------------|
B|---------------------------------------------------------|
G|16-14---16-----16-14---16-----16-14----------------------|
D|--------------17---------------17--------17--------------|
A|---------------------------------------------------------|
D|---------------------------------------------------------|

e |--------------------------------------------------------|
B|---------------------------------------------------------|
G|12-11---12-----12-11---12-----12-11----------------------|
D|--------------10---------------10--------10--------------|
A|---------------------------------------------------------|
D|---------------------------------------------------------|

e |--------------------------------------------------------|
B|---------------------------------------------------------|
G|12-11---12-----12-11---12-----12-11----------------------|
D|--------------12---------------12--------12--------------|
A|---------------------------------------------------------|
D|---------------------------------------------------------|

Bridge


e |--------------------------------------------------------------------|
B|----------------12--------------12---------------12-------------12---|
G|---------------------------------------------------------------------|
D|---------------------------------------------------------------------|
A|--3---5-5-3-5-8-3---5-5-3-5-1---3-5-5-3-5-8---3-5-5-3-12-8-----------|
D|--3---5-5-3-5-8-3---5-5-3-5-1---3-5-5-3-5-8---3-5-5-3-12-8-----------|


e |--------------------------------------------------------------------|
B|----------------12--------------12---------------12-------------12---|
G|---------------------------------------------------------------------|
D|---------------------------------------------------------------------|
A|--3---5-5-3-5-8-3---5-5-3-5-1---3-5-5-3-5-8---3-5-5-3-12-8-----------|
D|--3---5-5-3-5-8-3---5-5-3-5-1---3-5-5-3-5-8---3-5-5-3-12-8-----------|


e |--------------------------------------------------------|
B|---------------------------------------------------------|
G|12-11---12-----12-11---12-----12-11----------------------|
D|--------------10---------------10--------10--------------|
A|---------------------------------------------------------|
D|---------------------------------------------------------|

e |--------------------------------------------------------|
B|---------------------------------------------------------|
G|12-11---12-----12-11---12-----12-11----------------------|
D|--------------12---------------12--------12--------------|
A|---------------------------------------------------------|
D|---------------------------------------------------------|

e |--------------------------------------------------------|
B|---------------------------------------------------------|
G|12-11---12-----12-11---12-----12-11----------------------|
D|--------------10---------------10--------10--------------|
A|---------------------------------------------------------|
D|---------------------------------------------------------|

e |--------------------------------------------------------|
B|---------------------------------------------------------|
G|16-14---16-----16-14---16-----16-14----------------------|
D|--------------17---------------17--------17--------------|
A|---------------------------------------------------------|
D|---------------------------------------------------------|


Chorus

Guitar 1
e | ----------------------------------------------------|
B|------------------------------------------------------|
G|--33333333-55555555-77777777-10,10,10,10,10,10,10,10--|
D|--11111111-33333333-55555555-88888888-----------------|                           X6
A|--11111111-33333333-55555555-88888888-----------------|
D|--11111111-33333333-55555555-88888888-----------------|

Guitar 2
e |--------------------------------------------------------|
B|---------------------------------------------------------|
G|12-11---12-----12-11---12-----12-11----------------------|
D|--------------10---------------10--------10--------------|
A|---------------------------------------------------------|
D|---------------------------------------------------------|

e |--------------------------------------------------------|
B|---------------------------------------------------------|
G|12-11---12-----12-11---12-----12-11----------------------|
D|--------------12---------------12--------12--------------|
A|---------------------------------------------------------|
D|---------------------------------------------------------|

e |--------------------------------------------------------|
B|---------------------------------------------------------|
G|12-11---12-----12-11---12-----12-11----------------------|
D|--------------10---------------10--------10--------------|
A|---------------------------------------------------------|
D|---------------------------------------------------------|

e |--------------------------------------------------------------|
B|---------------------------------------------------------------|
G|16-14---16-----16-14---16-----16-14----------------------------|
D|--------------17---------------17--------17--------------------|           X2
A|---------------------------------------------------------------|
D|---------------------------------------------------------------|

Outro

e |--------------------------------------------------------------------|
B|--------------------------------------------------------------13-----|
G|-------------------------------------------------------------12------|
D|---------------------------------------------------------------------|
A|---5p-3--5p-3--5p-3---1111---------5p-3--5p-3--5p-3------------------|
D|----------------------------1111-------------------------------------|

e |--------------------------------------------------------------------|
B|--------------------------------------------------------------13-----|
G|-------------------------------------------------------------12------|
D|---------------------------------------------------------------------|
A|---5p-3--5p-3--5p-3---1111---------5p-3--5p-3--5p-3------------------|
D|----------------------------1111-------------------------------------|
Добавлено: 09.07.2012
Вам также может быть интересно:
Другие материалы по этой песне:

Страница создана 02.06.2012
http://primanota.ru/magna-fi/fall-from-grace-chords.htm
Привет, Гость.
Предлагаем пройти революционный курс по гитаре.
Подарок от PrimaNota.Ru, забирай!