PrimaNota.ru - самый крупный в мире бесплатный архив песенных текстов, аккордов, табулатур и нот


magic potion - Deep Web - таба, видео

Регистрация Запомнить меня
Войти через:  Facebook Google Twitter Vk Yandex Mail.ru

magic potion - Deep Web - таба, видео

Печатать
Просмотров: 75
Here: https://www.youtube.com/watch?v=qlyrU-lFpDc

Tunning: STANDARD


INTRO

E---------7---5-----------------------------
B-5/7~--7---7---7---7------5--7--5----------
G-5/7~------------7-----------------7~------
D------------------------7--7---------------
A-------------------------------------------
E-------------------------------------------

E---------5--3------------------------------
B----3--5------3-------3--5--6~--5--3-------
G-------------------------------------------
D--5-----------------5----------------------
A-------------------------------------------
E-------------------------------------------

*************************************************************

VERSE

E----------------------------------------
B----------------------------------------
G------7--9-9/10-9-7~--------------------
D--7h9-----------------------------------
A----------------------------------------
E----------------------------------------
                                    ONLY IN VERSE 2
E---------------------------------|---------
B--9b10-b10-b10-b10--b10r9-8-7~---|-5~------
G---------------------------------|-----7~--
D---------------------------------|---------
A---------------------------------|---------
E---------------------------------|---------


E----------------------------------------
B-----------5----5h7--5~----7------------
G--7~----7-----7--------------4-7~-------
D----------------------------------------
A----------------------------------------
E----------------------------------------


*********************************************

INTRO

VERSE

*********************************************

SOLO

E------------------------------------------------------------------
B--12b13-12b13-12b13-12b13r12-10-----10--12------------------------
G---------------------------------11---------11---9--7-9-9/11~------
D------------------------------------------------------------------
A------------------------------------------------------------------
E------------------------------------------------------------------


E------------------------------------------------------------------
B--12b13-12b13-12b13-12b13r12-10-----10--12------------------------
G---------------------------------11---------11---9--7-9-9-7~------
D------------------------------------------------------------------
A------------------------------------------------------------------
E------------------------------------------------------------------


E-------------------------------------------------------------------------------
B--12b13-12b13-14-14-12-10-----10--12----------------------10--10/12-10---------
G---------------------------11--------11---9--7-9-9-11~--11--11--------11--9----
D-------------------------------------------------------------------------------
A-------------------------------------------------------------------------------
E-------------------------------------------------------------------------------


E--------------------------------------------------------------
B--12b13-12b13-14-14-14/15-15--15/17-15------------------------
G----------------------------------------16-14-----------------
D----------------------------------------------16---17/9/8-----
A--------------------------------------------------------------
E--------------------------------------------------------------

E------------------------------------------------------------------
B------------------------------------------------------------------
G-----------------------7-7~--7------------------------------------
D------------------7--9--------9-7---------------------------------
A--5~------5-7-7/9-----------------9-7--------------5-----5~-------
E------5h7-----------------------------10--7-5-5h7----7-5----------

E------------------------------------------------------
B------------------------------------------------------
G---------------------7--9/10~-9~-7~---9/10~-9~-7------
D----------------7--9-----------------------------9~---
A--------5-7-7/9---------------------------------------
E----5h7-----------------------------------------------

--------
INTRO (X3)
-------
ENDING CHORDS

E--5~----2~-------------------------
B--7~----3~-------------------------
G--7~----2~-------------------------
D-----------------------------------
A-----------------------------------
E-----------------------------------



Please, any suggestions to improve this tab, in the comment section
Добавлено: 05.06.2016
Другие материалы по этой песне:
  • Аккорды и текст

Страница создана 05.06.2016
http://primanota.ru/magic-potion/deep-web-chords.htm
Привет, Гость.
Предлагаем пройти революционный курс по гитаре.
Подарок от PrimaNota.Ru, забирай!