PrimaNota.ru - самый крупный в мире бесплатный архив песенных текстов, аккордов, табулатур и нот


Magic Man - Catherine - аккорды и текст, видео

Регистрация Запомнить меня
Войти через:  Facebook Google Twitter Vk Yandex Mail.ru

Magic Man - Catherine - аккорды и текст, видео

Печатать
Просмотров: 116
Авторы: Sam Lee, Alex Caplow

Catherine
Magic Man
Catherine-Magic Man


e-----9-----7------2-----4------11------------11-------|
b-----9-----7------2-----4------12------------11-------|
g-----9-----8------3-----4------13------------11-------|
D-----7-----9------4-----6------13------------9--------|
A-----7-----9------4-----6------11------------9--------|
E-----7-----7------2-----4------11------------9--------|
      Emaj  Bmaj   F#maj Abm      Abm*(octup)    F#maj*(octup)



intro something like this (also outro) based on E B and F#
E|---------------------------------------------------------------------------------------------------------|
B|-----------9-----------9--------------7--------------11----------11--11----------11--11----------11--11--|
G|--9-----------9-----------8--------------8---------------11--------------11--------------11--------------|
D|-----7-----------7-----------9--------------9-----9----------11--------------11--------------11----------|
A|--------7-----------7-----------9--------------9---------------------------------------------------------|
E|---------------------------------------------------------------------------------------------------------|



VERSE 1:

   E   
Where are you now?
   E   
Can you take me there?
  B                  F# 
I'm a thousand miles away from anywhere
  E               E   
If only you could just make the time
 B                     F#  
We'd cut and run and leave this all behind


PRECHORUS:


   E
So let's go, go, go
  E                       Abm
Wherever we can finally be alone, lone, lone
   F#                          E
I want to, I need to understand, stand, stand
                           F#
That everything between us is love

And we're not making it all up


CHORUS:


 E
Catherine, I know
 B
We came so close
 F#                      Abm*    F#*
But I keep following the feeling that scares me most
 E
Catherine, I tried
 B
You know I'm on your side
 F#
I feel you right here
Abm*  F#*
Keeping me up tonight

E     B      F#    Abm*     F#*
ohohoh


VERSE 2:

 E
Know that I will wait for you
 B                              F# 
Just to shock me back to life and make it through
  E
'Cause honey you are the only kind
  B                            F# 
Of spirit that can breathe life into mine




PRECHORUS:


   E
So let's go, go, go
   E                    Abm
Wherever we can finally be alone, lone, lone              
    F#                       E
I want to, I need to understand, stand, stand
                           F#
That everything between us is love

And we're not making it all up


CHORUS:


 E
Catherine, I know
 B
We came so close
 F#                      Abm*    F#*
But I keep following the feeling that scares me most
 E
Catherine, I tried
 B
You know I'm on your side
 F#
I feel you right here
Abm*  F#*
Keeping me up tonight

E     B      F#    Abm*     F#*
ohohoh



OUTRO:

E                     B 
Know that I will wait for you
  F#                          Abm*      F#maj*
Just to shock me back to life and make it through
E                     B 
'Cause honey you are the only kind
 F#                           Abm*      F#maj*
Of spirit that can breathe life into mine

E  B  F#
And we're not making it all up






 E
Catherine, I know
 B 
We came so close
 F#                   Abm*       F#*
But I keep following the feeling that scares me most
 E
Catherine, I tried
 B
You know I'm on your side
 F#
I feel you right here
Abm*       F#*
Keeping me up tonight


E  B  F# Abm*    F#*
ohohoh



E  B   F# Abm*    F#*
ohohoh
Добавлено: 28.08.2015
Другие материалы по этой песне:
  • Аккорды и текст

Страница создана 28.08.2015
http://primanota.ru/magic-man/catherine-chords.htm
Привет, Гость.
Предлагаем пройти революционный курс по гитаре.
Подарок от PrimaNota.Ru, забирай!