PrimaNota.ru - самый крупный в мире бесплатный архив песенных текстов, аккордов, табулатур и нот


Magic Dirt - Girl Boy - таба, видео

Регистрация Запомнить меня
Войти через:  Facebook Google Twitter Vk Yandex Mail.ru

Magic Dirt - Girl Boy - таба, видео

Печатать
Просмотров: 87
Artist : Magic Dirt
Track  : Girl Boy
Album  : Tough Love
Tab By : Andy Brady(bluesexplosionman@hotmail.com)
 
Most of the song is played with distortion
   
    Makes me feel cool when I say your name
[0:00] Guit 1 (crd) 
e ---------------------
B -----------------4-4-
G --1-1--1-1--3-3--4-4-
D --2-2--2-2--4-4--4-4-
A --2-2--2-2--4-4--2-2-
E --0-0--0-0--2-2------
 
[0:14] Guit 2 (tab)                                                 * -
may be muted
    Watch me now as I.....
e
-------------------------------------------------------------------------
B
--7-7-7-7-7-7-7-7-7-7-7-7-7-7-7-777-7-7-7-7-7-7-7-7-7-7-7-5/4-4-4-5-4----
G
----------------------------------------------------------------------4-4
D
-------------------------------------------------------------------------
A
-------------------------------------------------------------------------
E
-------------------------------------------------------------------------
    Makes me feel cool....
e
---------------------------------------------------------------------------
B
--7-7-7-7-7-7-7-7-7-7-7-7-7-7-7-777-7-7-7-7-7-7-7-7-7-7-5-4h5-4h5-4hp5-----
G
-----------------------------------------------------------------------4-4-
D
---------------------------------------------------------------------------
A
---------------------------------------------------------------------------
E
---------------------------------------------------------------------------
 
[0:42] Chorus (guitars)
    Baby when you're in the same room as me
e --0---2---2---2-
B --0---2---4---2-
G --1---3---4---3-
D --2---4---4---4-  x 2
A --2---4---2---4-
E --0---2-------2-
    It's no tricks.....
e --0---2---4---2-
B --0---2---6---2-
G --1---3---6---3-
D --2---4---6---4- 
A --2---4---4---4-
E --0---2-------2-
 
[1:03] Guit 1
e -----------------------------------------------------
B -----------------------------------------------------
G --9-9-9--11-11-------*-*--9-9-9--11-11-------*-*-*-*-
D --9-9-9--11-11--9-9--*-*--9-9-9--11-11--9-9--*-*-*-*-
A --7-7-7--9--9---9-9--*-*--7-7-7--9--9---9-9--*-*-*-*-
E ----------------7-7---------------------7-7----------
 
[1:24] Guit 1
e ---------------------
B -----------------4-4-
G --1-1--1-1--3-3--4-4-
D --2-2--2-2--4-4--4-4-  x 4
A --2-2--2-2--4-4--2-2-
E --0-0--0-0--2-2------
 
Guit 2
e
----------------------------------------------------------------------------
B
--7-7-7-7-7-7-7-7-7-7-7-7-7-7-7-777-7-7-7-7-7-7-7-7-7-7-5-4h5-4h5-4h5p4-----
G
------------------------------------------------------------------------4-4-
D
----------------------------------------------------------------------------
A
----------------------------------------------------------------------------
E
----------------------------------------------------------------------------
 

[1:38] Chorus Guit 1
e --0---2---2---2-
B --0---2---4---2-
G --1---3---4---3-
D --2---4---4---4-  x 2
A --2---4---2---4-
E --0---2-------2-
 
Guit 2
e --2---2---2---
B ----4---2---4-
G --------------   x4
D --------------
A --------------
E --------------
 

[1:52] Guit 1
e --0---2---4---2-
B --0---2---6---2-
G --1---3---6---3-
D --2---4---6---4- 
A --2---4---4---4-
E --0---2-------2-
Guit 2
e ----------------11-
B ----------------11-
G --9---11--------11-
D --9---11---11---11-
A --7---9----11---9--
e -----------9-------
 
[1:59] Guit 1
    I just can't stand in the same room
e --0------
B --0------
G --1------
D --2------
A --2------
E --0------
   
Guit 2
e --2---2---2---
B ----4---2---2-
G --------------   x4
D --------------
A --------------
E --------------
 
[2:09] (harmonics)
    Cause you're a girl...
 
[2:23] Solo                                                        1/2  
full
e--------------------------------------------------------------------------------
-
B--------------------------------------------------------------------------------
-
G--8h9-8---8----------8h9-8---8---------8h9-8---8---------8h9-8---8b---8-9b-9-8--
-
D--------9---8h9-8----------9--8h9-8----------9--8h9-8----------9----9----------9
-
A------------------9-----------------9-----------------9-------------------------
-
E--------------------------------------------------------------------------------
-
[2:37] Last chorus
e --0---2---2---2-
B --0---2---4---2-
G --1---3---4---3-
D --2---4---4---4- 
A --2---4---2---4-
E --0---2-------2-
 
Guit 2
e ---------------------------
B --12--12----11-12/14-12-11-
G --x---x-----x--x--x-----x--
D --9---9-----8--9/ 11-9--8--
A ---------------------------
E ---------------------------
 
[2:50] Outro                          fade out
e ---------------------------------------
B ---------------------------------------
G ------------4-x-4-x-4-x-4-x-4-x-4-x-4--
D --2-2--4-4--4-x-4-x-4-x-4-x-4-x-4-x-4--
A --2-2--4-4--2-x-2-x-2-x-2-x-2-x-2-x-2--
E --0-0--2-2-----------------------------

     
Добавлено: 27.08.2013
Вам также может быть интересно:
Другие материалы по этой песне:
  • Аккорды и текст

Страница создана 27.08.2013
http://primanota.ru/magic-dirt/girl-boy-chords.htm
Привет, Гость.
Предлагаем пройти революционный курс по гитаре.
Подарок от PrimaNota.Ru, забирай!