PrimaNota.ru - самый крупный в мире бесплатный архив песенных текстов, аккордов, табулатур и нот


Maes Lost Empire - Sunday - таба, видео

Регистрация Запомнить меня
Войти через:  Facebook Google Twitter Vk Yandex Mail.ru

Maes Lost Empire - Sunday - таба, видео

Печатать
Просмотров: 105
E|-1111--0000--1111--0000--111100003333--0000--3333--0000--33330000-|
B|-3333--3333--3333--3333--333333336666--6666--6666--6666--66666666-|
G|-2222--2222--2222--2222--222222225555--5555--5555--5555--55555555-|
D|------------------------------------------------------------------|
A|------------------------------------------------------------------|
D|------------------------------------------------------------------|


E|-1111--0000--1111--0000--111100003333--0000--3~-|
B|-3333--3333--3333--3333--333333336666--6666--6~-|
G|-2222--2222--2222--2222--222222225555--5555--5~-|
D|------------------------------------------------|
A|------------------------------------------------|
D|------------------------------------------------|

E|--1-1-1-1----0-0-0-0----1-1-1-1----0-0-0-0----1-1-1-1-0-0-0-0-|
B|--3-3-3-3----3-3-3-3----3-3-3-3----3-3-3-3----3-3-3-3-3-3-3-3-|
G|--2-2-2-2----2-2-2-2----2-2-2-2----2-2-2-2----2-2-2-2-2-2-2-2-|
D|--0-0-0-0----0-0-0-0----0-0-0-0----0-0-0-0----0-0-0-0-0-0-0-0-|
A|--0-0-0-0----0-0-0-0----0-0-0-0----0-0-0-0----0-0-0-0-0-0-0-0-|
D|--0-0-0-0----0-0-0-0----0-0-0-0----0-0-0-0----0-0-0-0-0-0-0-0-|

E|------------------------------------------------------------------|
B|--8-8-8-8-----8-8-8-8-----8-8-8-8-----8-8-8-8-----8-8-8-8-8-8-8-8-|
G|-10101010-----9-9-9-9----10101010-----9-9-9-9----10101010-9-9-9-9-|
D|-10101010----10101010----10101010----10101010----1010101010101010-|
A|--8-8-8-8-----8-8-8-8-----8-8-8-8-----8-8-8-8-----8-8-8-8-8-8-8-8-|
D|--8-8-8-8-----8-8-8-8-----8-8-8-8-----8-8-8-8-----8-8-8-8-8-8-8-8-|

E|--1-1-1-1----0-0-0-0----1-1-1-1----0-0-0-0----1-1-1-1-0-0-0-0-|
B|--3-3-3-3----3-3-3-3----3-3-3-3----3-3-3-3----3-3-3-3-3-3-3-3-|
G|--2-2-2-2----2-2-2-2----2-2-2-2----2-2-2-2----2-2-2-2-2-2-2-2-|
D|--0-0-0-0----0-0-0-0----0-0-0-0----0-0-0-0----0-0-0-0-0-0-0-0-|
A|--0-0-0-0----0-0-0-0----0-0-0-0----0-0-0-0----0-0-0-0-0-0-0-0-|
D|--0-0-0-0----0-0-0-0----0-0-0-0----0-0-0-0----0-0-0-0-0-0-0-0-|

E|---------------------------------------------------|
B|--8-8-8-8-----8-8-8-8----8-8-8-8----5-5-5-5----5-5-|
G|-10101010-----9-9-9-9----7-7-7-7----5-5-5-5----5-5-|
D|-10101010----10101010----5-5-5-5----5-5-5-5----5-5-|
A|--8-8-8-8-----8-8-8-8----5-5-5-5----5-5-5-5----5-5-|
D|--8-8-8-8-----8-8-8-8----5-5-5-5----5-5-5-5----5-5-|


E|--1-1-1-1----0-0-0-0----1-1-1-1----0-0-0-0----1-1-1-1-0-0-0-0-|
B|--3-3-3-3----3-3-3-3----3-3-3-3----3-3-3-3----3-3-3-3-3-3-3-3-|
G|--2-2-2-2----2-2-2-2----2-2-2-2----2-2-2-2----2-2-2-2-2-2-2-2-|
D|--0-0-0-0----0-0-0-0----0-0-0-0----0-0-0-0----0-0-0-0-0-0-0-0-|
A|--0-0-0-0----0-0-0-0----0-0-0-0----0-0-0-0----0-0-0-0-0-0-0-0-|
D|--0-0-0-0----0-0-0-0----0-0-0-0----0-0-0-0----0-0-0-0-0-0-0-0-|


E|------------------------------------------------------------------|
B|--8-8-8-8-----8-8-8-8-----8-8-8-8-----8-8-8-8-----8-8-8-8-8-8-8-8-|
G|-10101010-----9-9-9-9----10101010-----9-9-9-9----10101010-9-9-9-9-|
D|-10101010----10101010----10101010----10101010----1010101010101010-|
A|--8-8-8-8-----8-8-8-8-----8-8-8-8-----8-8-8-8-----8-8-8-8-8-8-8-8-|
D|--8-8-8-8-----8-8-8-8-----8-8-8-8-----8-8-8-8-----8-8-8-8-8-8-8-8-|

E|--1-1-1-1----0-0-0-0----1-1-1-1----0-0-0-0----1-1-1-1-0-0-0-0-|
B|--3-3-3-3----3-3-3-3----3-3-3-3----3-3-3-3----3-3-3-3-3-3-3-3-|
G|--2-2-2-2----2-2-2-2----2-2-2-2----2-2-2-2----2-2-2-2-2-2-2-2-|
D|--0-0-0-0----0-0-0-0----0-0-0-0----0-0-0-0----0-0-0-0-0-0-0-0-|
A|--0-0-0-0----0-0-0-0----0-0-0-0----0-0-0-0----0-0-0-0-0-0-0-0-|
D|--0-0-0-0----0-0-0-0----0-0-0-0----0-0-0-0----0-0-0-0-0-0-0-0-|


E|----------------------------------------------------|
B|--8-8-8-8-----8-8-8-8----8-8-8-8----5-5-5-5----5-5~-|
G|-10101010-----9-9-9-9----7-7-7-7----5-5-5-5----5-5~-|
D|-10101010----10101010----5-5-5-5----5-5-5-5----5-5~-|
A|--8-8-8-8-----8-8-8-8----5-5-5-5----5-5-5-5----5-5~-|
D|--8-8-8-8-----8-8-8-8----5-5-5-5----5-5-5-5----5-5~-|
Добавлено: 18.04.2012
Другие материалы по этой песне:

Страница создана 12.04.2012
http://primanota.ru/maes-lost-empire/sunday-chords.htm
Привет, Гость.
Предлагаем пройти революционный курс по гитаре.
Подарок от PrimaNota.Ru, забирай!