PrimaNota.ru - самый крупный в мире бесплатный архив песенных текстов, аккордов, табулатур и нот


Maerzfeld - Ich Flieg - таба, видео

Регистрация Запомнить меня
Войти через:  Facebook Google Twitter Vk Yandex Mail.ru

Maerzfeld - Ich Flieg - таба, видео

Печатать
Просмотров: 211
Drop C

Intro
D|------------------------------------------------------------------------------------------------------|
A|------------------------------------------------------------------------------------------------------|
F|------------------------------------------------------------------------------------------------------|
C|--5/7-8-7---5---7-8-7-5--3-5-2---5/7-8-7-5--3-3-2----5/7-8-7---5---7-8-7-5--3-5-2---5/7-8-7-5--3-3-2--| x2
G|--5/7-8-7---5---7-8-7-5--3-5-2---5/7-8-7-5--3-3-2----5/7-8-7---5---7-8-7-5--3-5-2---5/7-8-7-5--3-3-2--|
C|--5/7-8-7---5---7-8-7-5--3-5-2---5/7-8-7-5--3-3-2----5/7-8-7---5---7-8-7-5--3-5-2---5/7-8-7-5--3-3-2--|


D|---------------------------------------------------------------------------------------|
A|---------------------------------------------------------------------------------------|
F|---------------------------------------------------------------------------------------|
C|--------------------8--------------------8--------------------8--------------------12--|
G|--00--00--00--00--008--00--00--00--00--008--00--00--00--00--008--00--00--00--00--0012--|
C|--00--00--00--00--008--00--00--00--00--008--00--00--00--00--008--00--00--00--00--0012--|
    **  **  **  **  **   **  **  **  **  **   **  **  **  **  **   **  **  **  **  **
D|---------------------------------------------------------------------------------------|
A|---------------------------------------------------------------------------------------|
F|---------------------------------------------------------------------------------------|
C|--------------------8--------------------8--------------------8--------------------12--|
G|--00--00--00--00--008--00--00--00--00--008--00--00--00--00--008--00--00--00--00--0012--|
C|--00--00--00--00--008--00--00--00--00--008--00--00--00--00--008--00--00--00--00--0012--|
    **  **  **  **  **   **  **  **  **  **   **  **  **  **  **   **  **  **  **  **

Chorus
D|---------------------------------------------|
A|---------------------------------------------|
F|---------------------------------------------|
C|-2-22--2-2-2-5--5--2~~--2-22--2-2-2-5--5--2~~|
G|-2-22--2-2-2-3--3--0~~--2-22--2-2-2-3--3--0~~|
C|-2-22--2-2-2------------2-22--2-2-2----------|


D|------------------------------------------------------------------------------------------------------|
A|------------------------------------------------------------------------------------------------------|
F|------------------------------------------------------------------------------------------------------|
C|--5/7-8-7---5---7-8-7-5--3-5-2---5/7-8-7-5--3-3-2----5/7-8-7---5---7-8-7-5--3-5-2---5/7-8-7-5--3-3-2--| 
G|--5/7-8-7---5---7-8-7-5--3-5-2---5/7-8-7-5--3-3-2----5/7-8-7---5---7-8-7-5--3-5-2---5/7-8-7-5--3-3-2--|
C|--5/7-8-7---5---7-8-7-5--3-5-2---5/7-8-7-5--3-3-2----5/7-8-7---5---7-8-7-5--3-5-2---5/7-8-7-5--3-3-2--|


D|---------------------------------------------------------------------------------------|
A|---------------------------------------------------------------------------------------|
F|---------------------------------------------------------------------------------------|
C|--------------------8--------------------8--------------------8--------------------12--|
G|--00--00--00--00--008--00--00--00--00--008--00--00--00--00--008--00--00--00--00--0012--|
C|--00--00--00--00--008--00--00--00--00--008--00--00--00--00--008--00--00--00--00--0012--|
    **  **  **  **  **   **  **  **  **  **   **  **  **  **  **   **  **  **  **  **
D|---------------------------------------------------------------------------------------|
A|---------------------------------------------------------------------------------------|
F|---------------------------------------------------------------------------------------|
C|--------------------8--------------------8--------------------8--------------------12--|
G|--00--00--00--00--008--00--00--00--00--008--00--00--00--00--008--00--00--00--00--0012--|
C|--00--00--00--00--008--00--00--00--00--008--00--00--00--00--008--00--00--00--00--0012--|
    **  **  **  **  **   **  **  **  **  **   **  **  **  **  **   **  **  **  **  **

Chorus                                           
D|---------------------------------------------|------------------------------------|
A|---------------------------------------------|------------------------------------|
F|---------------------------------------------|------------------------------------|
C|-2-22--2-2-2-5--5--2~~--2-22--2-2-2-5--5--2~~|--0~~~~~~9~~~9~~~~~9~~9~~9~5~~5~~7~~|
G|-2-22--2-2-2-3--3--0~~--2-22--2-2-2-3--3--0~~|--0~~~~~~9~~~9~~~~~9~~9~~9~5~~5~~7~~|
C|-2-22--2-2-2------------2-22--2-2-2----------|--0~~~~~~9~~~9~~~~~9~~9~~9~5~~5~~7~~|

Chorus
D|---------------------------------------------|
A|---------------------------------------------|
F|---------------------------------------------|
C|-2-22--2-2-2-5--5--2~~--2-22--2-2-2-5--5--2~~| x2
G|-2-22--2-2-2-3--3--0~~--2-22--2-2-2-3--3--0~~|
C|-2-22--2-2-2------------2-22--2-2-2----------|


D|------------------------------------------------------------------------------------------------------|
A|------------------------------------------------------------------------------------------------------|
F|------------------------------------------------------------------------------------------------------|
C|--5/7-8-7---5---7-8-7-5--3-5-2---5/7-8-7-5--3-3-2----5/7-8-7---5---7-8-7-5--3-5-2---5/7-8-7-5--3-3-2--| x2
G|--5/7-8-7---5---7-8-7-5--3-5-2---5/7-8-7-5--3-3-2----5/7-8-7---5---7-8-7-5--3-5-2---5/7-8-7-5--3-3-2--|
C|--5/7-8-7---5---7-8-7-5--3-5-2---5/7-8-7-5--3-3-2----5/7-8-7---5---7-8-7-5--3-5-2---5/7-8-7-5--3-3-2--|

Ending
D|--------|
A|--------|
F|--------|
C|---0~~~~|
G|---0~~~~|
C|---0~~~~|
Добавлено: 10.08.2015
Другие материалы по этой песне:
  • Аккорды и текст

Страница создана 10.08.2015
http://primanota.ru/maerzfeld/ich-flieg-chords.htm
Привет, Гость.
Предлагаем пройти революционный курс по гитаре.
Подарок от PrimaNota.Ru, забирай!