PrimaNota.ru - самый крупный в мире бесплатный архив песенных текстов, аккордов, табулатур и нот


Mael Mordha - Winds Of One Thousand Winters - таба, видео

Регистрация Запомнить меня
Войти через:  Facebook Google Twitter Vk Yandex Mail.ru

Mael Mordha - Winds Of One Thousand Winters - таба, видео

Печатать
Просмотров: 98
Tabbed by:Mike Clendenen(syke5)

BTW BACKWARDS DUE TO TRICKING COPIERS ULTIMATE GUITAR HAS THE ONLY RIGHTS TO THIS 
TAB WELL IT IS NOW FIXED AND THE OTHER WEBSITES LOOK LIKE NOOBS
Lead
                       (play 3 times)
e|-----------------|----------------|---------------|----------------|-----------------|
B|-----------------|----------------|---------------|----------------|---------5/6---8-|
G|-----------------|----5-----5---5-|--7-5---7-5---7|-8-7-5-7-7------|-8-7-5-7-----7---|
D|-5-7-8-5-7-8-5-8-|7-8---7-8---7---|8-----8-----8--|-----------8-7-8|-----------------|
A|-----------------|----------------|---------------|----------------|-----------------|
E|-----------------|----------------|---------------|----------------|-----------------|
play at the end on the third time you play it



Rhythm                   (play 2 times)
e|-----------------|----------------|---------------|----------------|-----------------|
B|-----------------|----------------|---------------|----------------|-----------------|
G|-----------------|8~--------------|8~-------------|-8~-------------|-10~-----5~------|
D|-5~--------------|8~--------------|8~-------------|-8~-------------|-10~-----3~------|
A|-3~--------------|6~--------------|5~-------------|-6~-------------|--8~-----3~------|
E|-3~--------------|----------------|---------------|----------------|-----------------|
                         (play on the third time through)
e|-----------------|----------------|---------------|----------------|-----------------|
B|-----------------|----------------|---------------|----------------|-----------------|
G|-----------------|8~--------------|8~-------------|8~--------------|-5~------5~------|
D|-5~--------------|8~--------------|8~-------------|8~--------------|-5~------3~------|
A|-3~--------------|6~--------------|5~-------------|6~--------------|-3~------3~------|
E|-3~--------------|----------------|---------------|----------------|-----------------|

Lead
(alternate pick on palm mutes)
e|-----(3-3)----(3-3-3)------(3-3)-----(3-3-3)------(3-3)-----(3-3-3)------------------|
B|---5--------6----------5-5---------6----------5-5--------6----------5----------------|
G|-------------------------------------------------------------------------------------|
D|-------------------------------------------------------------------------------------|
A|-------------------------------------------------------------------------------------|
E|-------------------------------------------------------------------------------------|
Rhythm
(alternate pick on palm mutes)
e|-----(3-3)----(3-3-3)------(3-3)-----(3-3-3)------(3-3)-----(3-3-3)------------------|
B|---5--------6----------5-5---------6----------5-5--------6----------5----------------|
G|-------------------------------------------------------------------------------------|
D|-------------------------------------------------------------------------------------|
A|-------------------------------------------------------------------------------------|
E|-------------------------------------------------------------------------------------|
Rhythm (lead takes a break)
e|---------------------------------------------------------------------------------------|
B|---------------------------------------------------------------------------------------|
G|-5~-----------5*-----------8~-----------10~-----------7~-------------------------------|
D|-5~-----------5*-----------8~-----------10~-----------7~-------------------------------|
A|-3~333333333--3*333333333--6~666666666--8~-888888888--5~777777777----------------------|
E|---------------------------------------------------------------------------------------|
     (Palm mute all the ones hooked together like this 333333333)
e|---------------------------------------------------------------------------------------|
B|---------------------------------------------------------------------------------------|
G|-5~-----------5*-----------8~-----------10-----------5~-----------5~-------------------|
D|-5~-----------5*-----------8~-----------10-----------5~-----------5~-------------------|
A|-3~333333333--3*333333333--6~666666666--8-888888888--3~333333333--3~333333333----------|
E|---------------------------------------------------------------------------------------|

(now there are some note movements in the bottom 2 riffs but i was having trouble
with the text editor and this is all i could fit so ill fix it later)

| /  slide up
| \  slide down
| h  hammer-on
| p  pull-off
| ~  let ring
| +  harmonic
| x  mute note
| *  choke note or chord
Добавлено: 09.05.2012
Вам также может быть интересно:
Другие материалы по этой песне:
  • Аккорды и текст

Страница создана 09.05.2012
http://primanota.ru/mael-mordha/winds-of-one-thousand-winters-chords.htm
Привет, Гость.
Предлагаем пройти революционный курс по гитаре.
Подарок от PrimaNota.Ru, забирай!