PrimaNota.ru - самый крупный в мире бесплатный архив песенных текстов, аккордов, табулатур и нот


Mae - Goodbye Goodnight - текст песни, таба, бас-таба, видео

Регистрация Запомнить меня
Войти через:  Facebook Google Twitter Vk Yandex Mail.ru

Mae - Goodbye Goodnight - текст песни, таба, бас-таба, видео

Печатать
Просмотров: 221
-------------------------------------------------------------------------------
                             Goodbye, Goodnight - Mae
-------------------------------------------------------------------------------
Tabbed by: live_by_guitar
Email: livebyguitar@hotmail.com

Tuning: Drop D with Capo on 1st Fret

I wasn't happy with the other tabs on here so I took what everyone had and threw it 
Get the strumming pattern from the song.


INTRO:

e|----9---------11------9---------4--------6------------------------------------|
B|----9---------11------9---------4--------6------------------------------------|
G|---11-(x3)----13-----11-(x4)----6-(x3)----8-(x5)------------------------------|
D|----x---------x-------x---------x--------x------------------------------------|
A|----9---------11------9---------4--------6------------------------------------|
D|----9---------11------9---------4--------6------------------------------------|

e|----9---------11------9---------4---------2--------|
B|----9---------11------9---------4---------2--------|
G|---11-(x3)----13-----11-(x2)----6-(x2)-----4-(x8)--|        x2
D|----x---------x-------x---------x---------x--------|
A|----9---------11------9---------4---------2--------|
D|----9---------11------9---------4---------2--------|

VERSE:
strumming lightly

e|----9---------11------9---------4--------6------------------------------------|
B|----9---------11------9---------4--------6------------------------------------|
G|---11-(x3)----13-----11-(x4)----6-(x3)----8-(x5)------------------------------|
D|----x---------x-------x---------x--------x------------------------------------|
A|----9---------11------9---------4--------6------------------------------------|
D|----9---------11------9---------4--------6------------------------------------|
   "the nights are getting colder..."
   "so this is my goodbye..."

e|----9---------11------9---------4---------2--------|
B|----9---------11------9---------4---------2--------|
G|---11-(x3)----13-----11-(x2)----6-(x2)-----4-(x8)--|        x2
D|----x---------x-------x---------x---------x--------|
A|----9---------11------9---------4---------2--------|
D|----9---------11------9---------4---------2--------|
   "to give up now doesn't make much sense.."
   "but your leaving me here on the defense..."

CHORUS:


e|----4---------2----------------------------6--------4-----|
B|----4---------2----------------------------6--------4-----|
G|----6---------4----------------------------8--------6-----|
D|----x---------x----------------------------x--------x-----|
A|----4---------2----------------------------6--------4-----|
D|----4---------2----------------------------6--------4-----|
   "Goodbye, I'm not going to waste this time..."       "Goodnight, I'm not getting off this ride..."

VERSE:

e|----9---------11------9---------4--------6------------------------------------|
B|----9---------11------9---------4--------6------------------------------------|
G|---11-(x3)----13-----11-(x4)----6-(x3)----8-(x5)------------------------------|
D|----x---------x-------x---------x--------x------------------------------------|
A|----9---------11------9---------4--------6------------------------------------|
D|----9---------11------9---------4--------6------------------------------------|
   "I've written you this letter..."
   "I just can't remember you..."

e|----9---------11------9---------4---------2--------|
B|----9---------11------9---------4---------2--------|
G|---11-(x3)----13-----11-(x2)----6-(x2)-----4-(x8)--|        x2
D|----x---------x-------x---------x---------x--------|
A|----9---------11------9---------4---------2--------|
D|----9---------11------9---------4---------2--------|
   "understand we're holding hands.."
   "as lights just go up ..."

CHORUS:


e|----4---------2----------------------------6--------4-----|
B|----4---------2----------------------------6--------4-----|
G|----6---------4----------------------------8--------6-----|
D|----x---------x----------------------------x--------x-----|          x2
A|----4---------2----------------------------6--------4-----|
D|----4---------2----------------------------6--------4-----|
   "Goodbye, I'm not going to waste this time..."       "Goodnight, I'm not getting off this ride..."

BRIDGE:

e|----4---------6-----7-----2----------9----------6------------------------------------|
B|----4---------6-----7-----2----------9----------6------------------------------------|
G|----6-(x8)-----8-----9-----4-(x8)-----11-(x8)-----8-(x8)-----------------------------|         x2
D|----x---------x-----x-----x----------x----------x------------------|    Back to 4th--|
A|----4---------6-----7-----2----------9----------6------------------------------------|    fret for tag
D|----4---------6-----7-----2----------9----------6------------------------------------|
  "I'm sitting under falling stars..."
  "I'm making plans to be with you..."

VERSE  x2
CHORUS x2

ENDING:

e|---6-------2----9--------6-------2----4--------6-------4--------6------2------------|
B|---6-------2----9--------6-------2----4--------6-------4--------6------2------------|
G|---8-(x2)---4---11-(x5)---8-(x2)---4----6-(x5)----8-(x2)---6-(x6)---8-(x2)--4-(x2)--|
D|---x-------x----x--------x-------x----x--------x-------x--------x------x------------|
A|---6-------2----9--------6-------2----4--------6-------4--------6------4------------|
D|---6-------2----9--------6-------2----4--------6-------4--------6------4------------|


There ya go! Hope it's to your liking seeing as this wasn't easy!


| /  slide up
| \  slide down
| h  hammer-on
| p  pull-off
| ~  vibrato
| +  harmonic
| x  Mute note
===============================================================================
Добавлено: 10.04.2012
Другие материалы по этой песне:
  • Аккорды и текст

Страница создана 16.03.2012
http://primanota.ru/mae/goodbye-goodnight-chords.htm
Привет, Гость.
Предлагаем пройти революционный курс по гитаре.
Подарок от PrimaNota.Ru, забирай!