PrimaNota.ru - самый крупный в мире бесплатный архив песенных текстов, аккордов, табулатур и нот


Mae - Crazy Eights - таба, видео

Регистрация Запомнить меня
Войти через:  Facebook Google Twitter Vk Yandex Mail.ru

Mae - Crazy Eights - таба, видео

Печатать
Просмотров: 152
-----------------------------------------------------------------------
                             CRAZY EIGHT'S - Mae
-----------------------------------------------------------------------


Tabbed by:The Black Box
Email:howidisappear15@gmail.com 

Tuning: 1/2 step down (eb Bb Gb Db Ab Eb)

Guitar 1: (elec. w/ heavy distortion)

Intro/Verse:

e||---------------------0-0-0-0-0-0----------------------------------|
B||---------------------2-2-2-2-2-2--3-3-3-3-3-3-3-3-8-8/6-5-5-------|
G||-3-3-3-3-3-3-3-3-3-3-2-2-2-2-2-2--4-4-4-4-4-4-4-4-9-9/7-6-6-6-6-6-|
D||-4-4-4-4-4-4-4-4-4-4-2-2-2-2-2-2--4-4-4-4-4-4-4-4-9-9/7-6-6-7-7-7-|
A||-4-4-4-4-4-4-4-4-4-4-0-0-0-0-0-0--2-2-0-2-2-0-2-0-7-7/5-4-4-7-7-7-|
E||-2-2-0-2-2-0-2-0-2-0----------------------------------------5-5-5-|
 PM  . . . . . . . . . . . . . . . .  . . . . . . . . . . . . . . . .

| /  slide up
| \  slide down
| h  hammer-on
| p  pull-off
| ~  vibrato
| +  harmonic
| x  Mute note
| .  Palm Mute
=======================================================================
Добавлено: 03.04.2012
Другие материалы по этой песне:
  • Аккорды и текст

Страница создана 03.04.2012
http://primanota.ru/mae/crazy-eights-chords.htm
Привет, Гость.
Предлагаем пройти революционный курс по гитаре.
Подарок от PrimaNota.Ru, забирай!