PrimaNota.ru - самый крупный в мире бесплатный архив песенных текстов, аккордов, табулатур и нот


Mae - Boomerang - текст песни, бас-таба, видео

Регистрация Запомнить меня
Войти через:  Facebook Google Twitter Vk Yandex Mail.ru

Mae - Boomerang - текст песни, бас-таба, видео

Печатать
Просмотров: 116
Intro- No bass
Verse (I'm not supposed to miss you...)
Gb|----------------------------------------------------------------|
Db|--33------33----------------------------------------------------|
Ab|-3--3---3---3--5-77-5-7-(5-77-5-7)------------------------------|(x3)
Eb|1-----1---------------------------------------------------------|

Pre-chorus (In the back of my mind...)
Gb|----------------------------------------------------------------|
Db|----------------------------------------------------------------|
Ab|-----------5----------------------------------------------------|
Eb|5-3-1-(3x)------------------------------------------------------|

Chorus (You're my boomerang...)
Gb|----------------------------------------------------------------|
Db|----------------------------------------------------------------|
Ab|1-3------------5------------------------------------------------|
Eb|-1-3--(2x)-5-3--------------------------------------------------|

Preverse
Gb|----------------------------------------------------------------|
Db|----------------------------------------------------------------|
Ab|5-77-5-7-5-77-5-7-----------------------------------------------|
Eb|-------------------3-3-3-5-5-5-6-6-1-1-0------------------------|

Verse
Prechorus
Chorus
Bridge

Fly Fly...
Gb|----------------------------------------------------------------|
Db|---5-----2---------5--------------------------------------------|
Ab|5-----3-----(2x)-5----------------------------------------------|
Eb|----------------------------------------------------------------|

Gb|----------------------------------------------------------------|
Db|----------------------------------------------------------------|
Ab|-----------5-5-5-5-3-3-8-7-3-1----------------------------------|(2x)
Eb|6-6-6-6-3-3-------------------5-6-5-3--3-3-3-5-5-5-6-6-1-1-0----|

Gb|----------------------------------------------------------------|
Db|----------------------------------------------------------------|
Ab|--------------3333333333----------------------------------------|
Eb|1111111--------------------11111111111--------------------------|

Prechorus
Chorus
Bridge (Fly Fly part)
Outro

F for 2 measures, C for one measure and two beats, G for a beat, repeated ad infintum.
Добавлено: 21.07.2012
Другие материалы по этой песне:
  • Аккорды и текст

Страница создана 21.07.2012
http://primanota.ru/mae/boomerang-chords.htm
Привет, Гость.
Предлагаем пройти революционный курс по гитаре.
Подарок от PrimaNota.Ru, забирай!