PrimaNota.ru - самый крупный в мире бесплатный архив песенных текстов, аккордов, табулатур и нот


Madvillain - Supervillain Theme - бас-таба, видео

Регистрация Запомнить меня
Войти через:  Facebook Google Twitter Vk Yandex Mail.ru

Madvillain - Supervillain Theme - бас-таба, видео

Печатать
Просмотров: 76
Supervillain Theme by Madvillain




Part 1:
G|-10p8-10----10p8-10------------------|
D|-----------------------9-----9--10-9-|
A|-------------------------------------|
E|-------------------------------------|


Part 2:
G|-----------10/12-10-9--------------------|
D|-----------------------10----------------|
A|-11----10-----------------/11--10--8-----|
E|--------------------------------------11-|



Hope this is helpful 
Добавлено: 08.11.2015
Другие материалы по этой песне:
  • Аккорды и текст

Страница создана 08.11.2015
http://primanota.ru/madvillain/supervillain-theme-chords.htm
Привет, Гость.
Предлагаем пройти революционный курс по гитаре.
Подарок от PrimaNota.Ru, забирай!