PrimaNota.ru - самый крупный в мире бесплатный архив песенных текстов, аккордов, табулатур и нот


Madvillain - Accordion - бас-таба, видео

Регистрация Запомнить меня
Войти через:  Facebook Google Twitter Vk Yandex Mail.ru

Madvillain - Accordion - бас-таба, видео

Печатать
Просмотров: 71
Авторы музыки: Otis Jackson, Jr.
Авторы текста: Daniel Dumile
Accordion by Madvillain

Drop D

Accordion Melody:
G|-14--------------------12-|
D|-------14-----15----------|
A|--------------------------|
D|--------------------------|


       Bassline: (0:52)
G|---||-----------------------------||
D|---||-----------------------------||
A|-0-||-5-0-3-0-----0-5-0-3-------0-||
D|---||---------------------0-------||


Hope this is helpful
Добавлено: 08.11.2015
Вам также может быть интересно:
Другие материалы по этой песне:
  • Аккорды и текст

Страница создана 08.11.2015
http://primanota.ru/madvillain/accordion-chords.htm
Привет, Гость.
Предлагаем пройти революционный курс по гитаре.
Подарок от PrimaNota.Ru, забирай!