PrimaNota.ru - самый крупный в мире бесплатный архив песенных текстов, аккордов, табулатур и нот


Madrugada - Two Black Bones - текст песни, бас-таба, видео

Регистрация Запомнить меня
Войти через:  Facebook Google Twitter Vk Yandex Mail.ru

Madrugada - Two Black Bones - текст песни, бас-таба, видео

Печатать
Просмотров: 125
Tuning: EADG

Part A 0.00 - 1.25

G|-----------------|
D|-----------------|
A|-5---8---3-----3-|
E|-------------35--|

Part B 1x

G|--------------------------------------------------|
D|--------------------------------------------53----|
A|--------44444-------44444-------44444---------534-|
E|-3333333-----3333333-----3333333-----3333333------|

Part C 1.40 - 2.09

G|-----------------|
D|-----------------|
A|-x---8---3-----3-|
E|-------------35--|


Part A 2.09 - 3.20

Part B 1x

Part A rest of the song (with a little break at 4.05)


that's it! please rate it
Добавлено: 02.03.2012
Другие материалы по этой песне:
  • Аккорды и текст

Страница создана 22.02.2012
http://primanota.ru/madrugada/two-black-bones-chords.htm
Привет, Гость.
Предлагаем пройти революционный курс по гитаре.
Подарок от PrimaNota.Ru, забирай!